Oops, an error
Loading. Please wait.

Almost Is Never Enough tab

47,015 views 141 this week
2 commentsread comments
1 2 3 4 5
x 23
add to favorites
×
Save as Personal and add changes to this tab that will be seen only by you. Learn more ›
×
You can save this tab as Personal to edit and correct it or add notes. All changes will be seen only by you. Learn more »
launch autoscroll
font size
0
reset
how to read this tab
guitar tuner
edit
Autoscroll
slow
fast
+/-
esc
set tempo
stop
Author
Time signature is 3/4. Each bar is 3 beats.

[Intro]
  
e|-2-|-5-|-2-|-5-|
B|-2-|---|-1-|---|
G|-2-|---|-2-|---|
D|-0-|---|-0-|---|
A|---|---|---|---|
E|---|---|---|---|

e|-0-|-3-|-3-|
B|-3-|---|-3-|
G|-4-|---|-3-|
D|-5-|---|-2-|
A|---|---|---|
E|---|---|---|

e|-------|-2-|
B|-------|-2-|
G|-------|-2-|
D|-4-7-9-|-0-|
A|-------|---|
E|-2-5-7-|---|


[Verse 1]

I'd like to say we gave it a try
e|-5-|-2-|---|
B|---|-1-----|
G|---|-2-----|
D|---|-0-----|
A|---|-------|
E|---|---|---|

I'd like to blame it all on life
e|-0-|---|-0-|-------|
B|-3-----|-3-|-------|
G|-4-----|-4-|-------|
D|-5-----|-5-|-4-7-9-|
A|-------|---|-------|
E|---|---|---|-2-5-7-|

Maybe we just weren't right
e|-2-|---|-2-|---|
B|-2-----|-1-----|
G|-2-----|-2-----|
D|-0-----|-0-----|
A|-------|-------|
E|---|---|---|---|

But that's a lie, that's a lie
e|-0-|---|-3-|-------|
B|-3-----|-3-|-------|
G|-4-----|-3-|-3-4-6-|
D|-5-----|-2-|-------|
A|-------|---|-1-2-4-|
E|---|---|---|-------|


[Pre-Chorus]

And we can deny it as much as we want
But in time our feelings will show
e|------|2----|------|2----|------|2----|-------|-0-|
B|-----3---3--|-----3---3--|-----3---3--|-------|-0-|
G|---4--------|---4--------|---3--------|-------|-1-|
D|-4----------|-0----------|-0----------|-----2-|-2-|
A|------------|------------|------------|---2---|-2-|
E|------|-----|------|-----|------|-----|-0-----|-0-|
  

(**Strumming**)


'Cause sooner or later
We'll wonder why we gave up  
e|-2-|---|-2-|---|
B|-3-----|-3-----|
G|-4-----|-2-----|
D|-5-----|-0-----|
A|-------|-------|
E|---|---|---|---|


The truth is everyone knows  
e|-1-1-1-|-1-1-1-|-0-0-0-|-0-|    |-------|
B|-3-3-3-|-3-3-3-|-3-3-3-|-3-|    |-------|
G|-2-2-2-|-2-2-2-|-2-2-2-|-2-|    |-------| (Optional part)
D|-3-3-3-|-3-3-3-|-2-2-2-|-2-|    |-----0-|
A|-1-1-1-|-1-1-1-|-0-0-0-|-0-|    |-0-2---|
E|-------|-------|-------|---|    |-------|


[Chorus]

Almost, almost is never enough
e|-2-----|-2-x-|-2-|---|-5-|---|
B|-2-----|-2-x-|-1-----|-3-----|
G|-2-----|-2-x-|-2-----|-4-----|
D|-0-----|-0-x-|-0-----|-5-----|
A|-------|---x-|-------|-------|
E|-------|---x-|---|---|---|---|

So close to being in love
e|-3-|---|-2-----|-2-x-|
B|-3-----|-2-----|-2-x-|
G|-4-----|-2-----|-2-x-|
D|-5-----|-0-----|-0-x-|
A|-5-----|-------|---x-|
E|-3-|---|-------|---x-|

If I would have known that you wanted me
The way I wanted you
e|-2-|---|-5-|---|-3-|---|
B|-1-----|-3-----|-3-----|
G|-2-----|-4-----|-3-----|
D|-0-----|-5-----|-5-----|
A|-------|-------|-5-----|
E|---|---|---|---|-3-|---|

Then maybe we wouldn't be two worlds apart
But right here in each others arms
e|-2-|-2-|-2-|-2-|-7-|-5-|-2-|  |------|
B|-3-|-3-|-2-|-2-|-5-|-5-|-3-|  |------|
G|-4-|-4-|-2-|-2-|-5-|-5-|-4-|  |------|(Optional Part)
D|-4-|-4-|-2-|-2-|-5-|-5-|-5-|  |----0-|
A|-2-|-2-|-4-|-4-|-5-|-5-|---|  |-0-2--|
E|---|---|---|---|---|---|---|  |------|

Here we almost, we almost knew what love was
e|-2-----|-2-x-|-2-|---|-5-|---|
B|-2-----|-2-x-|-1-----|-3-----|
G|-2-----|-2-x-|-2-----|-4-----|
D|-0-----|-0-x-|-0-----|-5-----|
A|-------|---x-|-------|-------|
E|-------|---x-|---|---|---|---|

But almost is never enough
e|-3-|-------|
B|-3-|-------|
G|-4-|-------|
D|-5-|-4-7-9-|
A|-5-|-------|
E|-3-|-2-5-7-|


[Verse 2]

If I could change the world overnight
e|-2-|-5-|-2-|---|
B|-2-|---|-1-----|
G|-2-|---|-2-----|
D|-0-|---|-0-----|
A|---|---|-------|
E|---|---|---|---|

There'd be no such thing as goodbye
e|-0-|---|-0-|-------|
B|-3-----|-3-|-------|
G|-4-----|-4-|-------|
D|-5-----|-5-|-4-7-9-|
A|-------|---|-------|
E|---|---|---|-2-5-7-|

You'll be standing right where you were
e|-2-|---|-2-|---|
B|-2-----|-1-----|
G|-2-----|-2-----|
D|-0-----|-0-----|
A|-------|-------|
E|---|---|---|---|

And we'd get the chance we deserve
e|-0-|---|-3-|-------|
B|-3-----|-3-|-------|
G|-4-----|-3-|-3-4-6-|
D|-5-----|-2-|-------|
A|-------|---|-1-2-4-|
E|---|---|---|-------|


[Pre-Chorus]

Try to deny it as much as you want
But in time our feelings will show
e|------|2----|------|2----|------|2----|-------|-0-|
B|-----3---3--|-----3---3--|-----3---3--|-------|-0-|
G|---4--------|---4--------|---3--------|-------|-1-|
D|-4----------|-0----------|-0----------|-----2-|-2-|
A|------------|------------|------------|---2---|-2-|
E|------|-----|------|-----|------|-----|-0-----|-0-|
  

(**Strumming**)


'Cause sooner or later
We'll wonder why we gave up  
e|-2-|---|-2-|---|
B|-3-----|-3-----|
G|-4-----|-2-----|
D|-5-----|-0-----|
A|-------|-------|
E|---|---|---|---|

The truth is everyone knows  
e|-1-1-1-|-1-1-1-|-0-0-0-|-0-|    |-------|
B|-3-3-3-|-3-3-3-|-3-3-3-|-3-|    |-------|
G|-2-2-2-|-2-2-2-|-2-2-2-|-2-|    |-------| (Optional part)
D|-3-3-3-|-3-3-3-|-2-2-2-|-2-|    |-----0-|
A|-1-1-1-|-1-1-1-|-0-0-0-|-0-|    |-0-2---|
E|-------|-------|-------|---|    |-------|


[Chorus]

Almost, almost is never enough (is never enough, babe)
e|-2-----|-2-x-|-2-|---|-5-|---|
B|-2-----|-2-x-|-1-----|-3-----|
G|-2-----|-2-x-|-2-----|-4-----|
D|-0-----|-0-x-|-0-----|-5-----|
A|-------|---x-|-------|-------|
E|-------|---x-|---|---|---|---|

We were so close to being in love (so close)
e|-3-|---|-2-----|-2-x-|
B|-3-----|-2-----|-2-x-|
G|-4-----|-2-----|-2-x-|
D|-5-----|-0-----|-0-x-|
A|-5-----|-------|---x-|
E|-3-|---|-------|---x-|

If I would have known that you wanted me the way I wanted you, babe
e|-2-|---|-5-|---|-3-|---|
B|-1-----|-3-----|-3-----|
G|-2-----|-4-----|-3-----|
D|-0-----|-5-----|-5-----|
A|-------|-------|-5-----|
E|---|---|---|---|-3-|---|

Then maybe we wouldn't be two worlds apart
But right here in each others arms
e|-2-|-2-|-2-|-2-|-7-|-5-|-2-|  |------|
B|-3-|-3-|-2-|-2-|-5-|-5-|-3-|  |------|
G|-4-|-4-|-2-|-2-|-5-|-5-|-4-|  |------|(Optional Part)
D|-4-|-4-|-2-|-2-|-5-|-5-|-5-|  |----0-|
A|-2-|-2-|-4-|-4-|-5-|-5-|---|  |-0-2--|
E|---|---|---|---|---|---|---|  |------|

Here we almost, we almost knew what love was
e|-2-----|-2-x-|-2-|---|-5-|---|
B|-2-----|-2-x-|-1-----|-3-----|
G|-2-----|-2-x-|-2-----|-4-----|
D|-0-----|-0-x-|-0-----|-5-----|
A|-------|---x-|-------|-------|
E|-------|---x-|---|---|---|---|

But almost is never enough
e|-3-|-------|-2-|-5-|-5-|
B|-3-|-------|-2-|---|-2-|
G|-4-|-------|-2-|---|-2-|
D|-5-|-4-7-9-|-0-|---|---|
A|-5-|-------|---|---|---|
E|-3-|-2-5-7-|---|---|---|



************************************

| x  Dead note   

************************************

            
            
Suggest correction
Creating personal tab
Creating personal tab
You can edit any tab online and save it as your Personal.

You can edit, replace or remove any tab part or add personal notes – all changes will be seen only by you.

Personal tabs can be accessed anytime from any device, even offline.
Learn more »
comments
print report bad tab
2 comments total.
+1 reply
deannamanning 95 Jan 23, 2014 05:57 PM

This is enjoyable to play, thanks.

+1 reply
Benbeatzzz 192 Feb 15, 2014 03:55 PM

This is a reallllly good tab

guest
You may want to rate the tab now too:
select rating
Wanna post a correction for this tab? Suggest correction