Oops, an error
Loading. Please wait.

Dangerous Woman intro tab

version 1
version 1

Intro

Whole song

3,526 views 36 this week
no commentswrite comment
1 2 3 4 5
x 8
add to favorites
×
Save as Personal and add changes to this tab that will be seen only by you. Learn more ›
×
You can save this tab as Personal to edit and correct it or add notes. All changes will be seen only by you. Learn more »
launch autoscroll
font size
0
reset
how to read this tab
guitar tuner
edit
Autoscroll
slow
fast
+/-
esc
set tempo
stop
Author
Difficulty
[Intro]

e|---------------------------------------------------------------------------|
B|---------------------------------------------------------------------------|
G|-------------------0---2-2h4-------2h4--2----------------------------------|
D|-00h2--------00h2--------------------------5b--2---------00h2--00h2--00h2--|
A|---------------------------------------------------------------------------|
E|---------------------------------------------------------------------------|

You really have to listen to the song to get the feeling right because its so bluesy funky.
And it sounds really nice if you throw some muted scratches in every now and then.
Just repeat this riff all the way to about 2/3 of the way through the second verse,
and then play it out the rest of the song except for the solo. 
But this song you really just gotta do what feels right. 


[Chorus]

e|-----------------------------|
B|-----------------------------|
G|-------------5-----5---------|
D|-2-----5-----5-----5---------|
A|-2-----5-----3-----3---------|
E|-0-----3---------------------|


[Solo]

Just rip a bluesy improv solo in E blues


************************************

| h  Hammer-on
| b  Bend

************************************

            
            
Suggest correction
Creating personal tab
Creating personal tab
You can edit any tab online and save it as your Personal.

You can edit, replace or remove any tab part or add personal notes – all changes will be seen only by you.

Personal tabs can be accessed anytime from any device, even offline.
Learn more »
comments
print report bad tab
guest
You may want to rate the tab now too:
select rating
Wanna post a correction for this tab? Suggest correction