Oops, an error
Loading. Please wait.

One Last Time tab

version 2
version 2

Whole song

16,003 views 297 this week
1 commentread comment
1 2 3 4 5
x 15
add to favorites
×
Save as Personal and add changes to this tab that will be seen only by you. Learn more ›
×
You can save this tab as Personal to edit and correct it or add notes. All changes will be seen only by you. Learn more »
launch autoscroll
font size
0
reset
how to read this tab
guitar tuner
edit
Autoscroll
slow
fast
+/-
esc
set tempo
stop
Author
Difficulty
intermediate
-------------------------------------------------------------------------------
                             ONE LAST TIME - Ariana Grande
-------------------------------------------------------------------------------
Tabbed by: Titch

Tuning: EADGBe
Key:    Fm
Capo:   1st Fret

This is basically how I play it. Intended as a rock version but it works all round :)
CAPO on 1st FRET - but I'll tab it out as normal.


Here is a link to a video of my cover if it helps:

https://www.youtube.com/watch?v=DfrIclzMD4c



CHORDS

Em  D  G  C  D

The whole song is this ^^^ same chord progression - except for the bridge, which is:

C  C  Em  G

little notes in between are shown in the tab.




[INTRO] (Finger-picked) Clean

e|--3---5---7-----3--8p7--0----0---0--3-2---------|
B|---------------------------3---3----------------|
G|------------------------------------------------|
D|------------------------------------------------|
A|------------------------------------------------|
E|------------------------------------------------| x1


e|--3---5---7-----3--8p7--0----0---0--3-2---------|
B|---------------------------3---3----------------|
G|------------------------------------0-0---------|
D|------------------------------------------------|
A|------------------------3--3---3----------------|
E|--0---2---3-----0-------------------------------| x2
  
(I was a liar, I gave in to this fire ....)


   Em   D   G          C             D    
e|------0---3------------------------2-----------|
B|------3---3---0h1-0-------------1--3-----------|
G|--0---2---0----------0-0---0----0--2-----------|
D|--2---0---0----------2-0h2-0h2-----0-----------|
A|--2-------3----------3-3---3-------------------|
E|--0-------2------------------------------------| x2

(And I know, and I know, and I know she gives you everything ...)



[CHORUS] (strummed) Distorted

Guitar 1
e|------------------------------------------------|
B|------------------------------------------------|
G|------7---4---4-/-5-\-4---5--4h5-4h5-5--7-------|
D|--2---7---5---x-/-x-\-x---5--5---5---5--7-------|
A|--2---5---5---2-/-3-\-2---3-(3)-(3)-(3)(5)------|
E|--0-------3-------------------------------------| Repeat through chorus

Guitar 2  (One, Last, Time ...)
e|---------------------------------------------------------------------------|
B|---------------------------------------------------------------------------|
G|--12--14---16---12--17-/-16---9---7-/-9---7-/-9----12-/-11-----------------|
D|--x---x----x----x---x--/-x----x---x-/-x---x-/-x----x--/-x------------------|
A|--10--12---14---10--15-/-14---7---5-/-7---5-/-7----10-/-9------------------|
E|---------------------------------------------------------------------------| x2

Guitar 2 (Baby I don't care...) - Vocal pattern
e|-----------------------------------------------------------------------------------|
B|--15-15-15-12-12----------------------------15-15-15-12-12-------------------------|
G|-----------------14-14-12-12-x----x------------------------14-14-12-12-x----x------|
D|-----------------------------x-12-x-12~--------------------------------x-12-x-12---|
A|-----------------------------------------------------------------------------------|
E|-----------------------------------------------------------------------------------|

Guitar 2  (One, Last, Time, I need to be, the one, who takes you home)
e|---------------------------------------------------------------------------|
B|---------------------------------------------------------------------------|
G|------------16~-//------17p16----------------------------------------------|
D|--17~--19~----------17---------14~--12h14--12h14-/-17--16~-----------------|
A|---------------------------------------------------------------------------|
E|---------------------------------------------------------------------------|



[Verse]

e|--3---5---7-----3--8p7--0----0---0--3-2---------|
B|---------------------------3---3----------------|
G|------------------------------------0-0---------|
D|------------------------------------------------|
A|------------------------3--3---3----------------|
E|--0---2---3-----0-------------------------------| x2

(I don't deserve it, I know I don't deserve it ...)


e|------0---3------------------------2-----------|
B|------3---3---0h1-0-------------1--3-----------|
G|--0---2---0----------0-0---0----0--2-----------|
D|--2---0---0----------2-0h2-0h2-----0-----------|
A|--2-------3----------3-3---3-------------------|
E|--0-------2------------------------------------| x2

(And I know, and I know, and I know she gives you everything ...)



[Chorus]

Guitar 1
e|------------------------------------------------|
B|------------------------------------------------|
G|------7---4---4-/-5-\-4---5--4h5-4h5-5--7-------|
D|--2---7---5---x-/-x-\-x---5--5---5---5--7-------|
A|--2---5---5---2-/-3-\-2---3-(3)-(3)-(3)(5)------|
E|--0-------3-------------------------------------| Repeat through chorus

Guitar 2  (One, Last, Time ...)
e|---------------------------------------------------------------------------|
B|---------------------------------------------------------------------------|
G|--12--14---16---12--17-/-16---9---7-/-9---7-/-9----12-/-11-----------------|
D|--x---x----x----x---x--/-x----x---x-/-x---x-/-x----x--/-x------------------|
A|--10--12---14---10--15-/-14---7---5-/-7---5-/-7----10-/-9------------------|
E|---------------------------------------------------------------------------| x2

Guitar 2 (Baby I don't care...) -Vocal pattern
e|-----------------------------------------------------------------------------------|
B|--15-15-15-12-12----------------------------15-15-15-12-12-------------------------|
G|-----------------14-14-12-12-x----x------------------------14-14-12-12-x----x------|
D|-----------------------------x-12-x-12~--------------------------------x-12-x-12---|
A|-----------------------------------------------------------------------------------|
E|-----------------------------------------------------------------------------------|

Guitar 2  (One, Last, Time, I need to be, the one, who takes you home)
e|---------------------------------------------------------------------------|
B|---------------------------------------------------------------------------|
G|------------16~-//------17p16----------------------------------------------|
D|--17~--19~----------17---------14~--12h14--12h14-/-17--16~-----------------|
A|---------------------------------------------------------------------------|
E|---------------------------------------------------------------------------|


[BRIDGE] (Clean)

*THIS SECTION NEEDS A LITTLE WORK BUT THIS FITS WELL

    C              C               Em              G
e|---------------------------------------------------------------------------|
B|-------------------------------------------------------------8-/-----------|
G|--5-5-5-5--4-4---5-5-5-5--4-4----0-0-0-0---------4-4-4-4--4--x-/-----------|
D|--5-5-5-5--5-5---5-5-5-5--5-5----2-2-2-2--2-2----5-5-5-5--5--5-/-----------|
A|--3-3-3-3--3-3---3-3-3-3--3-3----2-2-2-2--2-2----5-5-5-5--5----------------|
E|---------------------------------0-0-0-0--0-0----3-3-3-3--3----------------| x2


The quiet "One Last Time" part just before the final chorus

e|---------------------------------------------------------------------------|
B|---------------------------------------------------------------------------|
G|--12--14---16---12--17-/-16---9---7-/-9---7-/-9----12-/-11-----------------|
D|--x---x----x----x---x--/-x----x---x-/-x---x-/-x----x--/-x------------------|
A|--10--12---14---10--15-/-14---7---5-/-7---5-/-7----10-/-9------------------|
E|---------------------------------------------------------------------------| x1



[FINAL CHORUS]

Guitar 1
e|------------------------------------------------|
B|------------------------------------------------|
G|------7---4---4-/-5-\-4---5--4h5-4h5-5--7-------|
D|--2---7---5---x-/-x-\-x---5--5---5---5--7-------|
A|--2---5---5---2-/-3-\-2---3-(3)-(3)-(3)(5)------|
E|--0-------3-------------------------------------| Repeat through chorus

Guitar 2  (One, Last, Time ...)
e|---------------------------------------------------------------------------|
B|---------------------------------------------------------------------------|
G|--12--14---16---12--17-/-16---9---7-/-9---7-/-9----12-/-11-----------------|
D|--x---x----x----x---x--/-x----x---x-/-x---x-/-x----x--/-x------------------|
A|--10--12---14---10--15-/-14---7---5-/-7---5-/-7----10-/-9------------------|
E|---------------------------------------------------------------------------| x2

Guitar 2 (Baby I don't care...) - Vocal Pattern
e|-----------------------------------------------------------------------------------|
B|--15-15-15-12-12----------------------------15-15-15-12-12-------------------------|
G|-----------------14-14-12-12-x----x------------------------14-14-12-12-x----x------|
D|-----------------------------x-12-x-12~--------------------------------x-12-x-12---|
A|-----------------------------------------------------------------------------------|
E|-----------------------------------------------------------------------------------|

Guitar 2  (One, Last, Time, I need to be, the one, who takes you home)
e|---------------------------------------------------------------------------|
B|---------------------------------------------------------------------------|
G|------------16~-//------17p16----------------------------------------------|
D|--17~--19~----------17---------14~--12h14--12h14-/-17--16~-----------------|
A|---------------------------------------------------------------------------|
E|---------------------------------------------------------------------------|



[Outro]

e|--3---5---7-----3--8p7--0----0---0--3-2---------|
B|---------------------------3---3----------------|
G|------------------------------------0-0---------|
D|------------------------------------------------|
A|------------------------3--3---3----------------|
E|--0---2---3-----0-------------------------------|


Please Rate and Comment

Enjoy :)



************************************

| /   slide up
| \   slide down
| h   hammer-on
| p   pull-off
| ~   vibrato
| x   Mute note

************************************
Suggest correction
Creating personal tab
Creating personal tab
You can edit any tab online and save it as your Personal.

You can edit, replace or remove any tab part or add personal notes – all changes will be seen only by you.

Personal tabs can be accessed anytime from any device, even offline.
Learn more »
comments
print report bad tab
1 comment total.
0 reply
PiccoloChitarri 10 Jun 18, 2015 01:51 AM

Awesome tab mate!
Makes for a sweet rock cover

guest
You may want to rate the tab now too:
select rating
Wanna post a correction for this tab? Suggest correction