Oops, an error
Loading. Please wait.

Problem tab

version 4
version 4

Whole song

Interactive

Video

308 views 3 this week
1 commentread comment
1 2 3 4 5
2 more votes to show rating
add to favorites
×
Save as Personal and add changes to this tab that will be seen only by you. Learn more ›
×
You can save this tab as Personal to edit and correct it or add notes. All changes will be seen only by you. Learn more »
launch autoscroll
font size
0
reset
how to read this tab
guitar tuner
edit
Autoscroll
slow
fast
+/-
esc
set tempo
stop
Author
-------------------------------------------------------------------------------
                             PROBLEM -- ARIANA GRANDA
------------------------------------------------------------------------------
Tabbed by: MichaelWebb7


Tuning:Standard

MELOEY/INTRO:                        | Verse:
e|------------------9p7--------------|-7-7-7-7-7-7---7-7-7----------7-9-9/11---|
B|-9/10\9-9-9---7-9-----9-9----7-----|-------------9-------9----7-9------------|
G|------------8--------------8-------|-----------------------------------------|
D|--------------------------------x2-|---------------------------------------x2|
A|-----------------------------------|-----------------------------------------|
E|-----------------------------------|-----------------------------------------|
2nd time on intro play b string 9th fret once 

e|-9-11-9-7-9-------9-11-7----------|            Repeat verse 1 TIME 
B|------------9------------9--------|
G|----------------------------------| [In other words only run through it once]
D|----------------------------------|
A|----------------------------------|
E|----------------------------------|

e|-4-6-7p6-6-7-9p7-7-9-11-14-11-------------------|
B|------------------------------------------------| x2 [EXCEPT ON ENDING PLAY 16TH FRET;1ST STRING
G|------------------------------------------------|            THEN SLIDE DOWN THE FRET]
D|------------------------------------------------|
A|------------------------------------------------|
E|------------------------------------------------|

e|---------------------------------------------------------------------------|
B|---------------------------------------------------------------------------|
G|---------------------------------------------------------------------------|
D|-9-9-9-9-9-9-9-9-9-x3----9-9-9-9-9-9-9-9-----------------------------------|
A|---------------------------------------------------------------------------|
E|---------------------------------------------------------------------------|


REPEAT THESE STEPS IN CORRECT ORDER THROUGHOUT THE REST OF THE SONG 
       
          ENJOY!!!!

            
            
Suggest correction
Creating personal tab
Creating personal tab
You can edit any tab online and save it as your Personal.

You can edit, replace or remove any tab part or add personal notes – all changes will be seen only by you.

Personal tabs can be accessed anytime from any device, even offline.
Learn more »
Give kudos to tab author, rate the tab!
1 2 3 4 5
comments
print report bad tab
1 comment total.
0 reply
MichaelWebb7 32 Aug 16, 2015 02:16 PM

I'm sorry for those who saw this tab before my corrections if you are looking at it again please review carefully and find directions/changes

guest
You may want to rate the tab now too:
select rating
Wanna post a correction for this tab? Suggest correction