Oops, an error
Loading. Please wait.

Santa Tell Me Bass Tab

130 views 24 this week
no commentswrite comment
1 2 3 4 5
3 more votes to show rating
add to favorites
launch autoscroll
font size
0
reset
guitar tuner
Autoscroll
slow
fast
+/-
esc
set tempo
stop
Help us to improve Ultimate-Guitar.com Take our survey!
×
Author
Difficulty
intermediate
About this tab version
I wrote the song like I heard it maybe a with few mistakes. In the verse you need to play bass note at the end of the third kick drum. Was this info helpful? Yes No
-------------------------------------------------------------------------------
                            Santa Tell Me - Ariana Grande
-------------------------------------------------------------------------------

Tuning: standard 4 strings Bass Guitar

Tabbed By : drone89 

-------------------------------------------------------------------------------

Chorus :
[00:00]

No Bass

Verse :
[00:29]

G|-------------------------------------------5~--------|
D|-----------------------------------------5-----5---5-|
A|-------------------------------------x3~---------3---|
E|-3/-------x3--x3------3-3--x3/---3-------------------|

G|-------------------------------------------5~------|
D|-----------------------------------------5----5~---|
A|-------------------------------------x3~-----------|
E|-3/-------x3--x3------3-3--x3/---3-----------------|

G|----------------------------------------|
D|----------------------------------------|
A|-----------------3~----x2~-3~--5~~------|
E|-3~--x3-3-5-3~--------------------------|

Chorus:
[01:00]
I use Palm Mute for this part

G|----------------------------------------|
D|----------------------------------------|
A|---------3~---3~-3~--7~---7~-5~---5~-5~-|
E|-3~---3~--------------------------------|

G|----------------------------------------|
D|----------------------------------------|
A|---------3~---3~-3~--7~---7~-5~---5~-5~-|
E|-3~---3~--------------------------------|

Verse:
[01:20]
Cut the sount at the End

G|-------------------------------------------5---------|
D|-----------------------------------------5-----5---5-|
A|-------------------------------------x3~---------3---|
E|-3/-------x3--x3------3-3--x3/---3-------------------|

G|-------------------------------------------5~------|
D|-----------------------------------------5----5~---|
A|-------------------------------------x3~-----------|
E|-3/-------x3--x3------3-3--x3/---3-----------------|

G|------------------------5-5-----------------7------|
D|--------------------5-------------------5\7--------|
A|--------------3~~-3---3------x2~-3~--5~------------|
E|-3~-x3-3-5-3~--------------------------------------|

Chorus :
[1:50]

G|----------------------------------------|
D|----------------------------------------|
A|---------3~---3~-3~--7~---7~-5~---5~-5~-|
E|-3~---3~--------------------------------|

G|----------------------------------------|
D|----------------------------------------|
A|---------3~---3~-3~--7~---7~-5~---5~-5~-|
E|-3~---3~--------------------------------|

Bridge :
[02:20]

G|-------------------------------5\7-|
D|-----------------------------------|
A|-7~--6~--5~--4~--x3----3-----------|
E|---------------------3---5---5-----|


Chorus:
[02:30]
No Palm Mute here

G|-----------------------------------|
D|-----------------------------------|
A|--------3---3--3---7---7--5---5--5-|
E|-3---3-----------------------------|

G|-----------------------------------|
D|-----------------------------------|
A|--------3---3--3---7---7--5---5--5-|
E|-3---3-----------------------------|

G|-----------------------------------|
D|-----------------------------------|
A|--------3---3--3---7---7--5---5--5-|
E|-3---3-----------------------------|

| /  slide up
| \  slide down
| h  hammer-on
| p  pull-off
| ~  let ring
| +  harmonic
| x  Mute note
===============================================================================
Suggest correction
Give kudos to tab author, rate the tab!
1 2 3 4 5
comments
print report bad tab
guest
You may want to rate the tab now too:
select rating
Wanna post a correction for this tab? Suggest correction