Oops, an error
Loading. Please wait.

Side To Side bass

version 1
version 1

Whole song

  • This bass tab for Side To Side by Ariana Grande (f... Show more
  • This version is more correct based off of the solo... Show more
2,275 views 42 this week
no commentswrite comment
1 2 3 4 5
x 3
add to favorites
×
Save as Personal and add changes to this tab that will be seen only by you. Learn more ›
×
You can save this tab as Personal to edit and correct it or add notes. All changes will be seen only by you. Learn more »
launch autoscroll
font size
0
reset
guitar tuner
edit
Autoscroll
slow
fast
+/-
esc
set tempo
stop
Author
Difficulty
About this tab version
This bass tab for Side To Side by Ariana Grande (feat. Nicki Minaj) incorporates both the bass and the synth parts of the studio recording of the song. This will help you fill out the low end of the song if you are not playing with a synth player or synth track. Was this info helpful? Yes No
This bass tab for Side To Side by Ariana Grande (feat. Nicki Minaj) incorporates both the bass and the synth
parts of the studio recording of the song.  This will help you fill out the low end of the song if you are 
not playing with a synth player or synth track.

If you would like to see/hear a demonstration on what the bass sounds like doubling the synth parts for the 
Pre-Chorus, feel free to visit my cover of the song at:

https://www.youtube.com/watch?v=n0_Aq6-wjYs


Intro: No bass


Verse 1(0:12):

   1 + 2 + 3 + 4 +
G|-----------------|
D|-----------------|
A|-----------------|
E|---------12/-----|


   1 + 2 + 3 + 4 +   1 + 2 + 3 + 4 +   1 + 2 + 3 + 4 +   1 + 2 + 3 + 4 +  
G|-----------------|-----------------|-----------------|-----------------|
D|---------4-4-2---|-------------2---|---------4-4-2---|-------------2---|
A|---------------4-|-4-----4---------|---------------4-|-4-----4---------|
E|-2-----2---------|-----------------|-2-----2---------|-----------------|


   1 + 2 + 3 + 4 +   1 + 2 + 3 + 4 +   1 + 2 + 3 + 4 +   1 + 2 + 3 + 4 +  
G|-----------------|-----------------|-----------------|-----------------|
D|-----------------|-2-----2---2-2-4-|---------4-4-2---|-------------2---|
A|-5-----5---5-5---|-----------------|---------------4-|-4-----4---------|
E|-----------------|-----------------|-2-----2---------|-----------------|


   1 + 2 + 3 + 4 +   1 + 2 + 3 + 4 +   1 + 2 + 3 + 4 +   1 + 2 + 3 + 4 +  
G|-----------------|-----------------|-----------------|-----------------|
D|---------4-4-2---|-------------2---|---------4-4-2---|-------------2---|
A|---------------4-|-4-----4---------|---------------4-|-4-----4---------|
E|-2-----2---------|-----------------|-2-----2---------|-----------------|


   1 + 2 + 3 + 4 +   1 + 2 + 3 + 4 +   1 + 2 + 3 + 4 +   1 + 2 + 3 + 4 +  
G|-----------------|-----------------|-----------------|-----------------|
D|-----------------|-2-----2---2-2-4-|---------4-4-2---|-------------2---|
A|-5-----5---5-5---|-----------------|---------------4-|-4-----4---------|
E|-----------------|-----------------|-2-----2---------|-----------------|


Pre-Chorus 1(0:38): No bass but optional synth part

   1 + 2 + 3 + 4 +   1 + 2 + 3 + 4 +   1 + 2 + 3 + 4 +   1 + 2 + 3 + 4 +  
G|-----------------|-----------------|-----------------|-----------------|
D|-----------------|---------2-------|-----------------|---------2-------|
A|-----------------|-4---------------|-----------------|-4---------------|
E|-2---------------|-----------------|-2---------------|-----------------|


   1 + 2 + 3 + 4 +   1 + 2 + 3 + 4 +   1 + 2 + 3 + 4 +   1 + 2 + 3 + 4 +  
G|-----------------|-----------------|-----------------|-----------------|
D|-----------------|-2---------------|-----------------|-----------------|
A|-5---------------|-----------------|-----------------|-----------------|
E|-----------------|-----------------|-2---------------|-----------------|


Chorus 1: 

(0:50)


   1 + 2 + 3 + 4 +   1 + 2 + 3 + 4 +   1 + 2 + 3 + 4 +   1 + 2 + 3 + 4 +  
G|-----------------|-----------------|-----------------|-----------------|
D|-----------------|-----------------|-----------------|-----------------|
A|-----------------|-----------------|-----------------|-----------------|
E|-9/-----\2-------|-----------------|-----------------|-----------------|


   1 + 2 + 3 + 4 +   1 + 2 + 3 + 4 +   1 + 2 + 3 + 4 +   1 + 2 + 3 + 4 +  
G|-----------------|-----------------|-----------------|-----------------|
D|-----------------|-----------------|-----------------|-----------------|
A|-----------------|-----------------|-----------------|-----------------|
E|-----------------|-----------------|-----------------|---------12/-----|


(1:01)

   1 + 2 + 3 + 4 +   1 + 2 + 3 + 4 +   1 + 2 + 3 + 4 +   1 + 2 + 3 + 4 +  
G|-----------------|-----------------|-----------------|-----------------|
D|-----------------|---------2-2-2-2-|-----------------|---------2-2-2-2-|
A|-----------------|-4-4-4-4---------|-----------------|-4-4-4-4---------|
E|-2-2-2-2-------2-|-----------------|-2-2-2-2-------2-|-----------------|

   1 + 2 + 3 + 4 +   1 + 2 + 3 + 4 +   1 + 2 + 3 + 4 +   1 + 2 + 3 + 4 +  
G|-----------------|-----------------|-----------------|-----------------|
D|-----------------|-2-2-2-2---------|-----------------|-----------------|
A|-5-5-5-5-------5-|-----------------|-----------------|-----------------|
E|-----------------|---------0-0-0-0-|-2-2-2-2-------2-|-2---2-2---------|


Verse 2(1:14):

   1 + 2 + 3 + 4 +   1 + 2 + 3 + 4 +   1 + 2 + 3 + 4 +   1 + 2 + 3 + 4 +  
G|-----------------|-----------------|-----------------|-----------------|
D|---------4-4-2---|-------------2---|---------4-4-2---|-------------2---|
A|---------------4-|-4-----4---------|---------------4-|-4-----4---------|
E|-2-----2---------|-----------------|-2-----2---------|-----------------|


   1 + 2 + 3 + 4 +   1 + 2 + 3 + 4 +   1 + 2 + 3 + 4 +   1 + 2 + 3 + 4 +  
G|-----------------|-----------------|-----------------|-----------------|
D|-----------------|-2-----2---2-2-4-|---------4-4-2---|-------------2---|
A|-5-----5---5-5---|-----------------|---------------4-|-4-----4---------|
E|-----------------|-----------------|-2-----2---------|-----------------|


   1 + 2 + 3 + 4 +   1 + 2 + 3 + 4 +   1 + 2 + 3 + 4 +   1 + 2 + 3 + 4 +  
G|-----------------|-----------------|-----------------|-----------------|
D|---------4-4-2---|-------------2---|---------4-4-2---|-------------2---|
A|---------------4-|-4-----4---------|---------------4-|-4-----4---------|
E|-2-----2---------|-----------------|-2-----2---------|-----------------|


   1 + 2 + 3 + 4 +   1 + 2 + 3 + 4 +   1 + 2 + 3 + 4 +   1 + 2 + 3 + 4 +  
G|-----------------|-----------------|-----------------|-----------------|
D|-----------------|-2-----2---2-2-4-|---------4-4-2---|-------------2---|
A|-5-----5---5-5---|-----------------|---------------4-|-4-----4---------|
E|-----------------|-----------------|-2-----2---------|-----------------|


Pre-Chorus 2(1:38): No bass but optional synth part

   1 + 2 + 3 + 4 +   1 + 2 + 3 + 4 +   1 + 2 + 3 + 4 +   1 + 2 + 3 + 4 +  
G|-----------------|-----------------|-----------------|-----------------|
D|-----------------|---------2-------|-----------------|---------2-------|
A|-----------------|-4---------------|-----------------|-4---------------|
E|-2---------------|-----------------|-2---------------|-----------------|


   1 + 2 + 3 + 4 +   1 + 2 + 3 + 4 +   1 + 2 + 3 + 4 +   1 + 2 + 3 + 4 +  
G|-----------------|-----------------|-----------------|-----------------|
D|-----------------|-2---------------|-----------------|-----------------|
A|-5---------------|-----------------|-----------------|-----------------|
E|-----------------|-----------------|-2---------------|-----------------|


Chorus 2: 

(1:51)

   1 + 2 + 3 + 4 +   1 + 2 + 3 + 4 +   1 + 2 + 3 + 4 +   1 + 2 + 3 + 4 +  
G|-----------------|-----------------|-----------------|-----------------|
D|-----------------|-----------------|-----------------|-----------------|
A|-----------------|-----------------|-----------------|-----------------|
E|-9/-----\2-------|-----------------|-----------------|-----------------|


   1 + 2 + 3 + 4 +   1 + 2 + 3 + 4 +   1 + 2 + 3 + 4 +   1 + 2 + 3 + 4 +  
G|-----------------|-----------------|-----------------|-----------------|
D|-----------------|-----------------|-----------------|-----------------|
A|-----------------|-----------------|-----------------|-----------------|
E|-----------------|-----------------|-----------------|---------12/-----|


(2:02)

   1 + 2 + 3 + 4 +   1 + 2 + 3 + 4 +   1 + 2 + 3 + 4 +   1 + 2 + 3 + 4 +  
G|-----------------|-----------------|-----------------|-----------------|
D|-----------------|---------2-2-2-2-|-----------------|---------2-2-2-2-|
A|-----------------|-4-4-4-4---------|-----------------|-4-4-4-4---------|
E|-2-2-2-2-------2-|-----------------|-2-2-2-2-------2-|-----------------|

   1 + 2 + 3 + 4 +   1 + 2 + 3 + 4 +   1 + 2 + 3 + 4 +   1 + 2 + 3 + 4 +  
G|-----------------|-----------------|-----------------|-----------------|
D|-----------------|-2-2-2-2---------|-----------------|-----------------|
A|-5-5-5-5-------5-|-----------------|-----------------|-----------------|
E|-----------------|---------0-0-0-0-|-2-2-2-2-------2-|-2---2-2---------|


Bridge (Nicki Minaj rap at 2:14):

   1 + 2 + 3 + 4 +   1 + 2 + 3 + 4 +   1 + 2 + 3 + 4 +   1 + 2 + 3 + 4 +  
G|-----------------|-----------------|-----------------|-----------------|
D|-----------------|-----------------|-----------------|-----------------|
A|-----------------|-----------------|-----------------|-----------------|
E|-9/-----\2-------|-----------------|-----------------|-----------------|


   1 + 2 + 3 + 4 +   1 + 2 + 3 + 4 +   1 + 2 + 3 + 4 +   1 + 2 + 3 + 4 +  
G|-----------------|-----------------|-----------------|-----------------|
D|-----------------|-----------------|-----------------|-----------------|
A|-----------------|-----------------|-----------------|-----------------|
E|-----------------|-----------------|-----------------|---------12/-----|


   1 + 2 + 3 + 4 +   1 + 2 + 3 + 4 +   1 + 2 + 3 + 4 +   1 + 2 + 3 + 4 +  
G|-----------------|-----------------|-----------------|-----------------|
D|-----------------|-----------------|-----------------|-----------------|
A|-----------------|-----------------|-----------------|-----------------|
E|-2---------------|-----------------|-----------------|---------12/-----|


   1 + 2 + 3 + 4 +   1 + 2 + 3 + 4 +   1 + 2 + 3 + 4 +   1 + 2 + 3 + 4 +  
G|-----------------|-----------------|-----------------|-----------------|
D|-----------------|-----------------|-----------------|-----------------|
A|-----------------|-----------------|-----------------|-----------------|
E|-----------------|-----------------|-----------------|-----------------|


   1 + 2 + 3 + 4 +   1 + 2 + 3 + 4 +   1 + 2 + 3 + 4 +   1 + 2 + 3 + 4 +  
G|-----------------|-----------------|-----------------|-----------------|
D|-------4---4-2---|-----------------|-------4---4-2---|-----------------|
A|---------------4-|-4-----4---------|---------------4-|-4-----4---------|
E|-2---------------|-----------------|-2---------------|-----------------|

   1 + 2 + 3 + 4 +   1 + 2 + 3 + 4 +   1 + 2 + 3 + 4 +   1 + 2 + 3 + 4 +  
G|-----------------|-----------------|-----------------|-----------------|
D|---------------2-|-2-----2---2-2-4-|-------4---------|-----------------|
A|-5-----5---5-----|-----------------|-----------------|-----------------|
E|-----------------|-----------------|-2---------------|-----------------|


Pre-Chorus 3(2:50): No bass but optional synth part

   1 + 2 + 3 + 4 +   1 + 2 + 3 + 4 +   1 + 2 + 3 + 4 +   1 + 2 + 3 + 4 +  
G|-----------------|-----------------|-----------------|-----------------|
D|-----------------|---------2-------|-----------------|---------2-------|
A|-----------------|-4---------------|-----------------|-4---------------|
E|-2---------------|-----------------|-2---------------|-----------------|


   1 + 2 + 3 + 4 +   1 + 2 + 3 + 4 +   1 + 2 + 3 + 4 +   1 + 2 + 3 + 4 +  
G|-----------------|-----------------|-----------------|-----------------|
D|-----------------|-2---------------|-----------------|-----------------|
A|-5---------------|-----------------|-----------------|-----------------|
E|-----------------|-----------------|-2---------------|-----------------|


Chorus 3(3:04): 

   1 + 2 + 3 + 4 +   1 + 2 + 3 + 4 +   1 + 2 + 3 + 4 +   1 + 2 + 3 + 4 +  
G|-----------------|-----------------|-----------------|-----------------|
D|-----------------|---------2-2-2-2-|-----------------|---------2-2-2-2-|
A|-----------------|-4-4-4-4---------|-----------------|-4-4-4-4---------|
E|-2-2-2-2-------2-|-----------------|-2-2-2-2-------2-|-----------------|

   1 + 2 + 3 + 4 +   1 + 2 + 3 + 4 +   1 + 2 + 3 + 4 +   1 + 2 + 3 + 4 +  
G|-----------------|-----------------|-----------------|-----------------|
D|-----------------|-2-2-2-2---------|-----------------|-----------------|
A|-5-5-5-5-------5-|-----------------|-----------------|-----------------|
E|-----------------|---------0-0-0-0-|-2-2-2-2-------2-|-2---2-2---------|

   1 + 2 + 3 + 4 +   1 + 2 + 3 + 4 +   1 + 2 + 3 + 4 +   1 + 2 + 3 + 4 +  
G|-----------------|-----------------|-----------------|-----------------|
D|-----------------|---------2-2-2-2-|-----------------|---------2-2-2-2-|
A|-----------------|-4-4-4-4---------|-----------------|-4-4-4-4---------|
E|-2-2-2-2-------2-|-----------------|-2-2-2-2-------2-|-----------------|

   1 + 2 + 3 + 4 +   1 + 2 + 3 + 4 +   1 + 2 + 3 + 4 +   1 + 2 + 3 + 4 +  
G|-----------------|-----------------|-----------------|-----------------|
D|-----------------|-2-2-2-2---------|-----------------|-----------------|
A|-5-5-5-5-------5-|-----------------|-----------------|-----------------|
E|-----------------|---------0-0-0-0-|-2-2-2-2-------2-|-2---2-2---------|



Outro(3:28):

   1 + 2 + 3 + 4 +   1 + 2 + 3 + 4 +   1 + 2 + 3 + 4 +   1 + 2 + 3 + 4 +  
G|-----------------|-----------------|-----------------|-----------------|
D|-----------------|-----------------|-----------------|-----------------|
A|-----------------|-----------------|-----------------|-----------------|
E|-9/-----\2-------|-----------------|-----------------|-----------------|


   1 + 2 + 3 + 4 +   1 + 2 + 3 + 4 +   1 + 2 + 3 + 4 +   1 + 2 + 3 + 4 +  
G|-----------------|-----------------|-----------------|-----------------|
D|-----------------|-----------------|-----------------|-----------------|
A|-----------------|-----------------|-----------------|-----------------|
E|-----------------|-----------------|-----------------|-----------------|


Legend:

(x)/ = Slide down from (x)

\(x) = End slide on (x)

            
            
Suggest correction
Creating personal tab
Creating personal tab
You can edit any tab online and save it as your Personal.

You can edit, replace or remove any tab part or add personal notes – all changes will be seen only by you.

Personal tabs can be accessed anytime from any device, even offline.
Learn more »
Give kudos to tab author, rate the tab!
1 2 3 4 5
comments
print report bad tab
guest
You may want to rate the tab now too:
select rating
Wanna post a correction for this tab? Suggest correction