Oops, an error
Loading. Please wait.

Side To Side Tab

version 1
version 1

Whole song

Video

  • This is an depth video guitar lesson for Side to S... Show more
5,929 views 54 this week
no commentswrite comment
1 2 3 4 5
x 4
add to favorites
launch autoscroll
font size
0
reset
how to read this tab
guitar tuner
Autoscroll
slow
fast
+/-
esc
set tempo
stop
Author
[Intro]


e|0-2-2-5-7---0-2-2-5-7-7-9----2-7-9-5-4-2-0-4-2-0-0-4-0-2-------------------|
B|---------------------------------------------------------------------------|
G|---------------------------------------------------------------------------|
D|---------------------------------------------------------------------------|
A|---------------------------------------------------------------------------|
E|---------------------------------------------------------------------------|


[Verse]


e|--0-0-0-0-0---0-0-----------2-0-0-0-0--------------------------------------| (2x)
B|3------------------3-3-3-3-------------------------------------------------|
G|---------------------------------------------------------------------------|
D|---------------------------------------------------------------------------|
A|---------------------------------------------------------------------------|
E|---------------------------------------------------------------------------|


[Chorus]

e|---------------------------------------------------------------------------|
B|3-2-3-3-3-3---3---2--------3-2---------------------------------------------|
G|----------------------2---------2------------------------------------------|
D|---------------------------------------------------------------------------|
A|---------------------------------------------------------------------------|
E|---------------------------------------------------------------------------|


e|--0-0-0-0-0---0-0-----------2-0-0-0-0--------------------------------------| (2x)
B|3------------------3-3-3-3-------------------------------------------------|
G|---------------------------------------------------------------------------|
D|---------------------------------------------------------------------------|
A|---------------------------------------------------------------------------|
E|---------------------------------------------------------------------------|


e|---------------------------------------------------------------------------|
B|3-2-3-3-3-3---3---2--------3-2-------3-------------------------------------|
G|----------------------2---------2------------------------------------------|
D|---------------------------------------------------------------------------|
A|---------------------------------------------------------------------------|
E|---------------------------------------------------------------------------|


[Outro]

e|0-2-2-5-7---0-2-2-5-7-7-9----2-7-9-5-4-2-0-4-2-0-0-4-0-2-------------------|
B|---------------------------------------------------------------------------|
G|---------------------------------------------------------------------------|
D|---------------------------------------------------------------------------|
A|---------------------------------------------------------------------------|
E|---------------------------------------------------------------------------|

(Repeat a few Times)
Suggest correction
comments
print report bad tab
guest
You may want to rate the tab now too:
select rating
Wanna post a correction for this tab? Suggest correction