Oops, an error
Loading. Please wait.

The Way Tab

5,622 views 15 this week
1 commentread comment
1 2 3 4 5
excellent!
x 4
add to favorites
launch autoscroll
font size
0
reset
how to read this tab
guitar tuner
Tab Pro tools
  • play this tab
  • loop segment
  • change instrument
  • show fretboard
  • metronome
Autoscroll
slow
fast
+/-
esc
set tempo
stop
Contributor
Difficulty
advanced
"The Way" by Ariana Grande ft. Mac Miller
(Gabe Bondoc's Chord Progression)

Standard Tuning. *Original Pitch = Tuning: Half-Step Down


Intro/Rap:
--------------------|
--------------------|
--------------------| (2x)
--------------------|
---7----------8-9-9-|
-7----5-5---9-------|

Verse/Chorus/Bridge:
-(x)--5--0--4----0--0--0-|
-(5)--7--7--5----9--9--9-|
-(6)--7--7--6----10-10-9-| (4x)
-(5)--7--6--6----9--0--7-|
-(x)--0--7--0----0--8--9-|
-(6)--7--0--5----9--0--0-|

Pre-Chorus:
--5------0-------|
--7------7-------|
--7------7-------|
--7------6-------|
--0------7-------|
--7------0-------|
comments
print report bad tab
1 comment total.
0 reply
mickster1000 wrote on October 25 2013, 06:41 am

I think the intro sounds more like this instead:

e---------------------|
B---------------------|
G---------------------|
D---------------------|
A---7----------7-9-9--|
E-7----5-5---9--------|

I want to post or [tab]
guest
You may want to rate the tab now too:
select rating
Please do not post tabs as comments. Select "correction" instead!