Oops, an error
Loading. Please wait.

Que Caro Estoy Pagando chords

727 views 51 this week
no commentswrite comment
1 2 3 4 5
1 last vote to show rating
add to favorites
×
Save as Personal and add changes to this tab that will be seen only by you. Learn more ›
×
You can save this tab as Personal to edit and correct it or add notes. All changes will be seen only by you. Learn more »
launch autoscroll
font size
0
reset
transpose
0
reset
simplify chords
display chords
guitar tuner
edit
Autoscroll
slow
fast
+/-
esc
set tempo
stop
Author
Strumming
There is no strumming pattern for this song yet. and get +5 IQ
[Intro]
e|--10--10--10--10--10--14----8---8-------19--17--15--14--14/15--15--15------|
B|--12--12--12--12--12--15----10--10------20--19--17--15--15/17--17--17------|
G|---------------------------------------------------------------------------|
D|---------------------------------------------------------------------------|
A|---------------------------------------------------------------------------|
E|---------------------------------------------------------------------------|

e|14--14/15--14--14/15--14--14/15--15--14--12--------12---------13-----14--14|
B|15--15/17--15--15/17--15--15/17--17--15--13-----13----13--14-----14--15--15|
G|---------------------------------------------------------------------------|
D|---------------------------------------------------------------------------|
A|---------------------------------------------------------------------------|
E|---------------------------------------------------------------------------|

e|10-----12----10----8--7----------------------------------------------------|
B|12--13----12----10----8--8--7--5---5--------5------------------------------|
G|---------------------------------7-----7--5----7--5--4---------------------|
D|-------------------------------------------------------7--5----------------|
A|---------------------------------------------------------------------------|
E|---------------------------------------------------------------------------|

e|---------------------------------------------------------------------------|
B|-------------5----5----5---------3--5--3-----------------------------------|
G|--------4--7----7----7----7------x-------5--4--2---------------------------|
D|4--7--5---------------------5----x---------------5-------------------------|
A|---------------------------------------------------------------------------|
E|---------------------------------------------------------------------------|
 
e|-------------------|
B|-------------------|
G|-------------------|
D|----2--4--5--------|
A|--5----------------|
E|-------------------|

[Verse]
         G
Que caro estoy pagando
 G
Haberme enamorado tan perdidamente
                D7
Y ese fue el detalle
                 Em
Que no me daba cuenta de tus intenciones
               C
Poco a poco mataste mis ilusiones
             D7                              G
Mientras tú jugabas con otros brazos y otra piel
    D7                                Em
Y ahora resulta que no quieres que me aleje
                   C
Que estás muy arrepentida
                   D7               G          G7
Eso lo hubieras pensado cuando de mi te reías.

[Verse]
                  C               D7
Que caro estoy pagando el haberte conocido
             G            Bm         Em
Intentare borrarte de mi mente con alcohol
                C                        D7
Una banda unas plebes un Buccannas y un suspiro
              G          Bm         Em
Serán los ingredientes pa olvidarme de tu amor
                D7                        Em
Que caro estoy pagando por fijarme en tu bella
                      C
Y es que no me daba cuenta
               D7                    G     G7
Tu no tienes vergüenza mucho menos corazón.

[Instrumental]
e|--10--10--10--10--10--14----8---8-------19--17--15--14--14/15--15--15------|
B|--12--12--12--12--12--15----10--10------20--19--17--15--15/17--17--17------|
G|---------------------------------------------------------------------------|
D|---------------------------------------------------------------------------|
A|---------------------------------------------------------------------------|
E|---------------------------------------------------------------------------|

e|14--14/15--14--14/15--14--14/15--15--14--12--------12---------13-----14--14|
B|15--15/17--15--15/17--15--15/17--17--15--13-----13----13--14-----14--15--15|
G|---------------------------------------------------------------------------|
D|---------------------------------------------------------------------------|
A|---------------------------------------------------------------------------|
E|---------------------------------------------------------------------------|

e|10-----12----10-----|
B|12--13----12----10--|
G|--------------------|
D|--------------------|
A|--------------------|
E|--------------------|

[Verse]
   C
Que caro estoy pagando
            D7
El haberte conocido
            G              Bm         Em
Intentare borrerte de mi mente con alcohol
                   C                      D7
Una banda unas plebes un Buccannas y un suspiro
               G             Bm      Em
Serán los ingredientes pa olvidarme de tu amor
                 D7                        Em
Que caro estoy pagando por fijarme en tu bella
                       C
Y es que no me daba cuenta
                 D7                   G
Tu no tienes vergüenza mucho menos corazón.

[Outro]
e|-7----------------------------------------------------|
B|-8--8--7--5---5--------5------------------------------|
G|------------7-----7--5----7--5--4---------------------|
D|-----------------------------------7--5---------------|
A|------------------------------------------------------|
E|------------------------------------------------------|


************************************

| /  Slide up
| x  Dead note

************************************

            
            
Suggest correction
Creating personal tab
Creating personal tab
You can edit any tab online and save it as your Personal.

You can edit, replace or remove any tab part or add personal notes – all changes will be seen only by you.

Personal tabs can be accessed anytime from any device, even offline.
Learn more »
Give kudos to tab author, rate the tab!
1 2 3 4 5
comments
print report bad tab
guest
You may want to rate the tab now too:
select rating
Wanna post a correction for this tab? Suggest correction