Oops, an error
Loading. Please wait.

Vida Truncada chords

130 views 3 this week
no commentswrite comment
1 2 3 4 5
3 more votes to show rating
add to favorites
×
Save as Personal and add changes to this tab that will be seen only by you. Learn more ›
×
You can save this tab as Personal to edit and correct it or add notes. All changes will be seen only by you. Learn more »
launch autoscroll
font size
0
reset
transpose
0
reset
simplify chords
display chords
guitar tuner
edit
Autoscroll
slow
fast
+/-
esc
set tempo
stop
Strumming
There is no strumming pattern for this song yet. and get +5 IQ
[Intro]
e|9---10--10 12--12--12--12--9---10 12--9---9-----9---10--9----7---10--10--10-10|
B|10--12--12 14--14--14--14--10--12 14--10--10----10--12--10---7--7----7---7--7-|
G|-------------------------------------------------------------7----------------|
D|------------------------------------------------------------------------------|
A|------------------------------------------------------------------------------|
E|------------------------------------------------------------------------------|

e|7--7--7--5--4--4--4--2--2--0--0h2-2--2--0--0--0----0-0-0-0--2-0---------------|
B|9--9--9--7--5--5--5--3--3--2--0h3-3--3--2--2--0-----------------3--2--0-------|
G|------------------------------------------------2------------------------2----|
D|------------------------------------------------------------------------------|
A|------------------------------------------------------------------------------|
E|------------------------------------------------------------------------------|

(play this part fast)
e|------------------------------------------------------------------------------|
B|----------------------2-------------------------------------------------------|
G|2---------------------2-------------------------------------------------------|
D|--4--2--0----4--2-----2-----4--2--------------(4-2-0)x3-----------------------|
A|-------------------4--------------4--3--2--0------------4--2--0---------------|
E|------------------------------------------------------------------------------|

[Verse]
  A                             D  
Ya me voy para ver si me olvido
           Eb7       D Eb7    A
de esa ingrata que truncó mi vida
                                      D  
ya no hay fe, no hay amor, ni esperanza
        Eb7  D Eb7   A
en mi vida todo se acabó

[Chorus]
    Eb7                             A  
Yo no quiero, desearle mala suerte
  Eb7               D Eb7      A  
ni pedirle, que vuelva a mi lado
                               D  
solo quiero, que sufra como sufro
         Eb7          D Eb7      A  
que le duela el haberme abandonado

e|9---10--10 12--12--12--12--9---10 12--9---9-----9---10--9----7---10--10--10-10|
B|10--12--12 14--14--14--14--10--12 14--10--10----10--12--10---7--7----7---7--7-|
G|-------------------------------------------------------------7----------------|
D|------------------------------------------------------------------------------|
A|------------------------------------------------------------------------------|
E|------------------------------------------------------------------------------|

e|7--7--7--5--4--4--4--2--2--0--0h2-2--2--0--0--0--|
B|9--9--9--7--5--5--5--3--3--2--0h3-3--3--2--2--0--|
G|------------------------------------------------2|
D|-------------------------------------------------|
A|-------------------------------------------------|
E|-------------------------------------------------|

[Verse]
  A                                   D  
Ya me voy, llevo en mi alma una herida
      Eb7         D Eb7     A  
su recuerdo no puedo olvidarlo
                              D  
sólo sé, que destrozo mi vida
              Eb7       D Eb7      A  
que Dios la guarde y le de su perdón

[Outro]
    Eb7                             A  
Sólo siento dejar mis pobres padres
  Eb7              D Eb7      A  
sus consejos no supe yo entender
                                   D  
si la muerte o el destino nos condena
         Eb7           D Eb7      A
yo me conformo con mi propio padecer.


***********************************

| h  Hammer-on
|    Slide up

***********************************

            
            
Suggest correction
Creating personal tab
Creating personal tab
You can edit any tab online and save it as your Personal.

You can edit, replace or remove any tab part or add personal notes – all changes will be seen only by you.

Personal tabs can be accessed anytime from any device, even offline.
Learn more »
Give kudos to tab author, rate the tab!
1 2 3 4 5
comments
print report bad tab
guest
You may want to rate the tab now too:
select rating
Wanna post a correction for this tab? Suggest correction