Oops, an error
Loading. Please wait.

Lipstick solo tab

235 views 18 this week
no commentswrite comment
1 2 3 4 5
3 more votes to show rating
add to favorites
×
Save as Personal and add changes to this tab that will be seen only by you. Learn more ›
×
You can save this tab as Personal to edit and correct it or add notes. All changes will be seen only by you. Learn more »
launch autoscroll
font size
0
reset
how to read this tab
guitar tuner
edit
Autoscroll
slow
fast
+/-
esc
set tempo
stop
Author
This is the main/catchy synth line.
They do some variations, but this is the general idea. I think it's all a mode of the F# major scale.


[Verse]

e|---------------------------------------------------------------------------|
B|---------------------------------------------------------------------------|
G|----3----------------------------------------------------------------------|
D|--------6---4-6-4-3--------------------------4-----4-----4-----------------|
A|----------------------4------------------6-----4-----6-----4---------------|
E|------------------------6--------------------------------------------------|

Play variations on the first bit below 3x (it sometimes ends on the 6th of the A string instead of the 6th on 
the E string), then the last bit (which reminds me of Mulan...)

[Chorus]

e|---------------------------------------------------------------------------|
B|---------------------------------------------------------------------------|
G|----------3------------------------------------3-------6--6s8--------------|
D|--------4---6----4-6-4-3---------------------4---6-------------------------|
A|----6--------------------6----6-----------6--------------------------------|
E|--------------------------------6------------------------------------------|



************************************

| s  Slide

************************************

            
            
Suggest correction
Creating personal tab
Creating personal tab
You can edit any tab online and save it as your Personal.

You can edit, replace or remove any tab part or add personal notes – all changes will be seen only by you.

Personal tabs can be accessed anytime from any device, even offline.
Learn more »
Give kudos to tab author, rate the tab!
1 2 3 4 5
comments
print report bad tab
guest
You may want to rate the tab now too:
select rating
Wanna post a correction for this tab? Suggest correction