Oops, an error
Loading. Please wait.

And Then Some Chords

73 views 54 this week
no commentswrite comment
1 2 3 4 5
3 more votes to show rating
add to favorites
launch autoscroll
font size
0
reset
transpose
0
reset
display chords
guitar tuner
Autoscroll
slow
fast
+/-
esc
set tempo
stop
Help us to improve Ultimate-Guitar.com Take our survey!
×
Author
Difficulty
intermediate
(This tab is for lead and rhythm guitars, they both are playing simultaneously during Interludes and intros. 
If you're looking for timing just listen to the song and you'll figure it out in no time.)

[Chords]
   B  E  G#m F# C#m
e|-7--7--4---2--4-------------------------------------------------------------|
B|-7--9--4---2--4-------------------------------------------------------------|
G|-8--9--6---3--6-------------------------------------------------------------|
D|-9--9--6---4--6-------------------------------------------------------------|
A|-9--7--4---4--4-------------------------------------------------------------|
E|-7---------2----------------------------------------------------------------|

[Lead Riff]
e|---------4-2---------------------------------------------------------------|
B|-------------4-4-4-4-2---2-------------------------------------------------|
G|-4-4-4-4---------------4---4-----------------------------------------------|
D|---------------------------------------------------------------------------|
A|---------------------------------------------------------------------------|
E|---------------------------------------------------------------------------|

[Intro]
B  E  G#m (x4)

[Lead Riff] (x2)
e|---------4-2---------------------------------------------------------------|
B|-------------4-4-4-4-2---2-------------------------------------------------|
G|-4-4-4-4---------------4---4-----------------------------------------------|
D|---------------------------------------------------------------------------|
A|---------------------------------------------------------------------------|
E|---------------------------------------------------------------------------|

[Verse]
B                    E               G#m
Found an empty room, locked the door shut
B               E                  G#m
Party raged on, you could only hear the bass thump
B                    E               G#m
With two empty cups, my heart it all came pouring out
B                        E               G#m
You’re a white Russian, just let me be a boy scout

[Pre-Chorus]
E                  F#
And when I’m gone, do you think about me?
E                    F#
Since you came back, I see things differently
E               F#
And this love, came so easily
G#m                          C#m
We were talking in the dark, but it’s so clear to me

[Chorus]
B                       E                     G#m
I adore you because you don’t care where I came from
B                   E                     G#m
Just kiss me in the dark while my lips are numb
B                   E                     G#m
And I love every inch of you and then some
B        E              G#m
And then some and then some

[Interlude]
(Lead Riff)
e|---------4-2---------------------------------------------------------------|
B|-------------4-4-4-4-2---2-------------------------------------------------|
G|-4-4-4-4---------------4---4-----------------------------------------------|
D|---------------------------------------------------------------------------|
A|---------------------------------------------------------------------------|
E|---------------------------------------------------------------------------|

B    E    G#m  

(Lead Riff) (x2)
e|---------4-2---------------------------------------------------------------|
B|-------------4-4-4-4-2---2-------------------------------------------------|
G|-4-4-4-4---------------4---4-----------------------------------------------|
D|---------------------------------------------------------------------------|
A|---------------------------------------------------------------------------|
E|---------------------------------------------------------------------------|

B    E    G#m 

[Verse]
B            E               G#m
Face to face tell me what you see
B                  E               G#m
I’m the town crier and you’re reluctant royalty
B                     E               G#m
And I understand just where you get second thoughts
B                  E                       G#m
I’m New Years’ Eve and you’re waiting for the ball to drop

[Pre-Chorus]
E                  F#
And when I’m gone, do you think about me?
E                F#
When you dream, do I make the screen?
E                     F#
And this love came so easily
G#m                          C#m
Can you see it shining there, up on the marquee? 

[Chorus]
B                       E                     G#m
I adore you because you don’t care where I came from
B                   E                     G#m
Just kiss me in the dark while my lips are numb
B                   E                     G#m
And I love every inch of you and then some
B        E              G#m      
And then some and then some
B        E              G#m
And then some and then some                  (Lead Riff Plays Throughout)
B        E              G#m               
And then some and then some 
B        E              G#m
And then some and then some
B        E              G#m
And then some and then some

[Pre-Chorus]
E                  F#
And when I’m gone, do you think about me?
E              F#
When I’m gone, do you think about me?
E               F#
When you dream, do I make the screen?
G#m                    C#m
We were talking in the dark

[Chorus/Outro]
B                       E                     G#m
I adore you because you don’t care where I came from
B                   E                     G#m
Just kiss me in the dark while my lips are numb
B                   E                 G#m
And I love every inch of you and then some
B        E              G#m
And then some and then some
B                       E                     G#m
I adore you because you don’t care where I came from
B                   E                     G#m
Just kiss me in the dark while my lips are numb
B                   E                     G#m
And I love every inch of you and then some
B        E              G#m
And then some and then some
B        E              G#m
And then some and then some                (Lead Riff Plays Throughout)
B        E              G#m
And then some and then some
B        E              G#m
And then some and then some
B        E              G#m
And then some and then some

[Ending] 
B
Suggest correction
Give kudos to tab author, rate the tab!
1 2 3 4 5
comments
print report bad tab
guest
You may want to rate the tab now too:
select rating
Wanna post a correction for this tab? Suggest correction