Oops, an error
Loading. Please wait.

Hangs The Moon tab

by Arkells
46 views 1 this week
no commentswrite comment
1 2 3 4 5
3 more votes to show rating
add to favorites
×
Save as Personal and add changes to this tab that will be seen only by you. Learn more ›
×
You can save this tab as Personal to edit and correct it or add notes. All changes will be seen only by you. Learn more »
launch autoscroll
font size
0
reset
how to read this tab
guitar tuner
edit
Autoscroll
slow
fast
+/-
esc
set tempo
stop
About this tab version
Same key as original. Tab reflects the piano part. Was this info helpful? Yes No
[Intro]
e|---------------------------------------------|
B|----1----0---------0-----1----0---------0----|
G|--------------2---------0----------2---------|
D|---------------------------------------------|
A|---------------------------------------------|
E|---------------------------------------------|

 [Verse]
e|---------------------------------------------|
B|----1----0---------0-----1----0---------0----|
G|---0----------2---------0----------2---------|
D|---------------------------------------------|
A|---------------------------------------------|
E|---------------------------------------------|
I turn to you whenever I'm hurt

e|---------------------------------------------|
B|----1----0---------0-----1----0---------0----|
G|---0----------2---------0----------2---------|
D|---------------------------------------------|
A|---------------------------------------------|
E|---------------------------------------------|
And I hang on you and your every word

e|---------------------------------------------|
B|----1----0---------0-----1----0---------0----|
G|---0----------2---------0----------2---------|
D|---------------------------------------------|
A|---------------------------------------------|
E|---------------------------------------------|
You're rarely wrong I hate to put up a fight

e|---------------------------------------------|
B|----1----0---------0-----1----0---------0----|
G|---0----------2---------0----------2---------|
D|---------------------------------------------|
A|---------------------------------------------|
E|---------------------------------------------|
You're rarely wrong but this time you might

[Chorus]
      C                      Am
Every boy in this town would jump at the chance
    G
But no one can love you like I can
         Am                Em
And it's you who hangs the moon
            G
Can we talk soon?

 [Verse]
e|---------------------------------------------|
B|----1----0---------0-----1----0---------0----|
G|---0----------2---------0----------2---------|
D|---------------------------------------------|
A|---------------------------------------------|
E|---------------------------------------------|
You think it's all just a big risk

e|---------------------------------------------|
B|----1----0---------0-----1----0---------0----|
G|---0----------2---------0----------2---------|
D|---------------------------------------------|
A|---------------------------------------------|
E|---------------------------------------------|
You've been wanting me. You won't always look like this

e|---------------------------------------------|
B|----1----0---------0-----1----0---------0----|
G|---0----------2---------0----------2---------|
D|---------------------------------------------|
A|---------------------------------------------|
E|---------------------------------------------|
And you think I can't be honest with myself

e|---------------------------------------------|
B|----1----0---------0-----1----0---------0----|
G|---0----------2---------0----------2---------|
D|---------------------------------------------|
A|---------------------------------------------|
E|---------------------------------------------|
And you think my love might drift somewhere else

[Chorus]
      C                      Am
Every boy in this town would jump at the chance
    G
But no one can love you like I can
         Am                Em
And it's you who hangs the moon
            G
Can we talk soon?
         Am                Em
And it's you who hangs the moon
            G
Can we talk soon?
         Am                Em
And it's you who hangs the moon
            G
Can we talk soon?

 [Outro]
e|---------------------------------------------|
B|----1----0---------0-----1----0--------------|
G|--------------2---------0----------2----0----|
D|---------------------------------------------|
A|---------------------------------------------|
E|---------------------------------------------|

            
            
Suggest correction
Creating personal tab
Creating personal tab
You can edit any tab online and save it as your Personal.

You can edit, replace or remove any tab part or add personal notes – all changes will be seen only by you.

Personal tabs can be accessed anytime from any device, even offline.
Learn more »
Give kudos to tab author, rate the tab!
1 2 3 4 5
comments
print report bad tab
guest
Wanna post a correction for this tab? Suggest correction