Oops, an error
Loading. Please wait.

Im Not The Sun tab

version 3
version 3

Whole song

  • This version offers a more accurate section when i... Show more

Interactive

by Arkells
46 views 3 this week
no commentswrite comment
1 2 3 4 5
3 more votes to show rating
add to favorites
×
Save as Personal and add changes to this tab that will be seen only by you. Learn more ›
×
You can save this tab as Personal to edit and correct it or add notes. All changes will be seen only by you. Learn more »
launch autoscroll
font size
0
reset
how to read this tab
guitar tuner
edit
Autoscroll
slow
fast
+/-
esc
set tempo
stop
Author
Difficulty
About this tab version
This version offers a more accurate section when it comes to tabbing in things like verses and outro. Was this info helpful? Yes No
Key Of Song : Am

[Intro] x2
e|-------------------|
B|--5-3--------------|
G|------4--2----2----|
D|------------5----4-|
A|-------------------|
E|-------------------|

[Verse 1]

B                             Am        G
Slipped through the front door without a key
B                               Am            G
It’s always unlocked when you're waiting for me
B                          Am                      G
And I have to wait till your roommates were sleeping
B                      C5               G5   C5   G5 
They give you a hard time that I was over

  B5               Am        G                             
Yours eyes light up always the same
e|------------------------------------|
B|------------------------------------|
G|-----------------------5--------4---|
D|-------9-------9--------------------|
A|---9-------9-------7--------5-------|
E|-7---7---7---7---5---5----3---3-----|

  B5               Am        G
Just like I was taking you on a first date
e|------------------------------------|
B|------------------------------------|
G|-----------------------5--------4---|
D|-------9-------9--------------------|
A|---9-------9-------7--------5-------|
E|-7---7---7---7---5---5----3---3-----|

  B5               Am        G
But you have no reason for feeling this way
e|------------------------------------|
B|------------------------------------|
G|-----------------------5--------4---|
D|-------9-------9--------------------|
A|---9-------9-------7--------5-------|
E|-7---7---7---7---5---5----3---3-----|

B5  C5  G5  C5  G5

[Chorus]

e|-------------------|
B|--5-3--------------|
G|------4--2----2----|    x4
D|------------5----4-|
A|-------------------|
E|-------------------|

So don’t let me be your guiding light
Cuz that was never my power
I’m not the sun
There’s no guarantee
I'll burn out hard like a spark


G5 
D5 *Slide* C5 G5
B5         C5 G5

e|-----------------|
B|-----------------|
G|-12-14-11--9-7---| x4
D|---------------9-|
A|-----------------|
E|-----------------|

[First solo]
Havn't quite figured that part out yet but if you use the Am Pentatonic Scale you should be able to 
improvise it well enough. It's something among the lines of this. Continue playing the solo through the next
chorus.

e|----------------|------------------8-10-|
B|----------------|-------------8-10------|
G|-----7----------|---------7-9-----------|
D|-7/9---9--7h9p7-|-5-7-5-7---------------|
A|----------------|-----------------------|
E|----------------|-----------------------|

[Chorus] 

B5                 Am           G5
So don’t let me be your guiding light
B5                        Am      G5
Cuz I’ll keep you lost in the dark
B5                   Am          G5
Cuz I’m not the sun Theres no guarantee
B5             C5          G5
Cuz I burn out hard like a spark
B5               C5         G5
Yeah, I'll burn out hard like a spark 

[Outro]
e|-----------|-------------------------|
B|-\15-17-12-|-12h13p12----12h13p12----|
G|-----------|----------12----------12-|
D|-----------|-------------------------|
A|-----------|-------------------------|
E|-----------|-------------------------|

e|-----------|-------------------------|
B|-\15-17-12-|-12h13p12----------------|
G|-----------|----------12-11h12p11----|
D|-----------|----------------------12-|
A|-----------|-------------------------|
E|-----------|-------------------------|

e|-----------|-------------------------|
B|-\15-17-12-|-12h13p12----12h13p12----|
G|-----------|----------12----------12-|
D|-----------|-------------------------|
A|-----------|-------------------------|
E|-----------|-------------------------|

e|-----------|-------------------------|
B|-\15-17-12-|-12h13p12----------------|
G|-----------|----------12-11h12p11----|
D|-----------|----------------------12-|
A|-----------|-------------------------|
E|-----------|-------------------------|

e|----------|
B|-12h14h15-| x24
G|----------|
D|----------|
A|----------|
E|----------|


************************************

| /   slide up
| \   slide down
| h   hammer-on
| p   pull-off
| ~   vibrato

************************************

            
            
Suggest correction
Creating personal tab
Creating personal tab
You can edit any tab online and save it as your Personal.

You can edit, replace or remove any tab part or add personal notes – all changes will be seen only by you.

Personal tabs can be accessed anytime from any device, even offline.
Learn more »
Give kudos to tab author, rate the tab!
1 2 3 4 5
comments
print report bad tab
guest
You may want to rate the tab now too:
select rating
Wanna post a correction for this tab? Suggest correction