Oops, an error
Loading. Please wait.

Never Thought That This Would Happen chords

version 2
version 2

Whole song

by Arkells
952 views 18 this week
1 commentread comment
1 2 3 4 5
x 5
add to favorites
×
Save as Personal and add changes to this tab that will be seen only by you. Learn more ›
×
You can save this tab as Personal to edit and correct it or add notes. All changes will be seen only by you. Learn more »
launch autoscroll
font size
0
reset
transpose
0
reset
display chords
guitar tuner
edit
Autoscroll
slow
fast
+/-
esc
set tempo
stop
Author
Strumming
There is no strumming pattern for this song yet. and get +5 IQ
Never Thought That This Would Happen
Arkells
High Noon (2014)

Tuning: Standard
Capo 3rd Fret

[Intro]

  F               Em             C
e|---------------------------------------------------------|
b|--------0-------------0-------------0------0-----0-------|
g|--------------------------------0-----0------0-----0---0-|
d|----5-----5---5---5-----5---5-----2-----2------2-----2---|
a|--8---8-----8---7---7-----7---3--------------------------|
E|---------------------------------------------------------|


[Verse]

F                    Em
Beating the drum all night
C
Dancing naked around a fire
F                Em
Leaving trouble behind
C
Swimming in the water
            F             Em
We found the tent with the flashlight
        C
We were looking for a hideout
            F             Em
When you’re praying for no strings
    C
Sometimes you get tied down


[Chorus]

G     C                             Em
And I never thought that this would happen
G       C                       Am
And you got all weird after the weekend
G        C                    Em
Sometimes you make out with an old friend
G      C                      Am
And I’m rounding first and I’m sliding into second


[Verse]
(Same as Intro)

F                       Em
She could never hold her tongue much
C
And when I bit her lip hard
F              Em       
Expecting some review like
C
2 out of 5 stars
       F                    Em
But in a moment she revealed that
C
She was no different
            F             Em
We were just kid’s nervous breathing
C
Showing some forgiveness


[Chorus]


G     C                             Em
And I never thought that this would happen
G      C                       Am
And you got all weird after the weekend
G        C                    Em
Sometimes you make out with an old friend
G      C                      Am
And I’m rounding first and I’m sliding into second


[Post-chorus]
(Chords Strummed Once)

D
And if you don’t know

Then I don’t know
C
How these things go
Am
Ooh ooh ooh ooh ooh ooh


[Instrumental]

F              Em                 C

F              Em                 G


[Verse]
(Palm-muted)

F                      Em
In your wooly socks and Birkenstocks
C
What would they say about us
F                   Em
At the hour of the evening
G
The night will carry on without us
F                    Em
But if we had to play one card
C
And say we both blacked out
F                      Em
And my friends seems to trust us
G
They believe this silly kinda of cop out
Let me tell you now


[Chorus]


G     C                             Em
And I never thought that this would happen
G      C                       Am
And you got all weird after the weekend
G        C                    Em
Sometimes you make out with an old friend
G      C                      Am
And I’m rounding first and I’m sliding into second


[Post-chorus]
(Chords Strummed Once)

D
And if you don’t know

Then I don’t know
C
How these things go
Am
Ooh ooh ooh ooh ooh ooh


[Bridge]

(Power chords sliding up the neck)
     C      D       D#       F
e|----------------------------------|
b|----------------------------------|
g|--5-------7-------8-------10------|
d|--5-------7-------8-------10------|
a|--3-------5-------6-------8-------|
E|----------------------------------|


Em  
Ooh la la la
D
Ooh la la la


C      D       D#       F


Em  
Ooh la la la
D
Ooh la la la

C      D       D#       F

Em  
Ooh la la la
D
Ooh la la la

 
    C      D    D#   F      D#    F      F#    G#  
             All I wanna say, All I wanna say, All I wanna do
e|-----------------------------------------------------|
b|-----------------------------------------------------|
g|-----------------------------------------------------|
d|-----------------------------------------------------|
a|--3-----5-----6-----8-----6-----8-----9------11------|
E|-----------------------------------------------------|


[Chorus]

G     C                             Em
And I never thought that this would happen
G      C                       Am
And you got all weird after the weekend
G        C                    Em
Sometimes you make out with an old friend
G      C                      Am
And I’m rounding first and I’m sliding into second


Oh oh oh 
G
And I Everybody 
C       Em
Come on now 
G
And you 
C          Em
What am I to do        oh oh!!
G       C    Em
Sometimes 
G           C                Em
And I Rounding first I’m rounding first


[Post-chorus]
(Chords Strummed Once)

D
And if you don’t know

Then I don’t know
C
How these things go
Am
Ooh ooh ooh ooh ooh ooh

            
            
Suggest correction
Creating personal tab
Creating personal tab
You can edit any tab online and save it as your Personal.

You can edit, replace or remove any tab part or add personal notes – all changes will be seen only by you.

Personal tabs can be accessed anytime from any device, even offline.
Learn more »
comments
print report bad tab
1 comment total.
0 reply
McCarvill 33 Jul 26, 2017 09:43 AM

I find it easier to play the intro tab starting on the 3rd fret of the D string:

F Em C
e|-------------------------------------------------------------------|
b|--------0---------------0----------------0---------------0---------|
g|----0------0---0----0------0---0-----0------0---0---0-------0---0--|
d|--3---3------3----2---2------2---------2------2-------2-------2----|
a|-----------------------------------3--------------3----------------|
E|-------------------------------------------------------------------|

This way seems a little more intuitive, and sounds nice played solo.

I find a fingerstyle pattern similar to Fleetwood Mac's "Landslide" works pretty well.

guest
You may want to rate the tab now too:
select rating
Wanna post a correction for this tab? Suggest correction