Oops, an error
Loading. Please wait.

Oh The Boss Is Coming bass

version 1
version 1

Whole song

Interactive

by Arkells
3,670 views 9 this week
3 commentsread comments
1 2 3 4 5
x 7
add to favorites
×
Save as Personal and add changes to this tab that will be seen only by you. Learn more ›
×
You can save this tab as Personal to edit and correct it or add notes. All changes will be seen only by you. Learn more »
launch autoscroll
font size
0
reset
guitar tuner
edit
Autoscroll
slow
fast
+/-
esc
set tempo
stop
-------------------------------------------------------------------------------
			     Oh, The Boss Is Coming - Arkells
-------------------------------------------------------------------------------

Tabbed By : InflamedAverage
e-mail: picolo61@hotmail.com

Second single of Arkells' Jackson Square album. Pretty good band. 
Check them out: www.myspace.com/arkells
I'm pretty sure that everything is right. 
Feel free to email me if there's any correction to do about it !


Tuning: Standard

   INTRO
   0.00 - 0.13
G|---------------------------------------------------------------------------|
D|-------7/9-----------------7/9------------------7/9------------------------|
A|-----------5-2-0---------------5-2-0---------------5-2-0-------------------|
E|-7-777-----------456-7-777-----------456-7-777-----------456---------------|

G|-----------7--9-7--------------|
D|-------7/9--------99-77--------|
A|------------------------88-----|
E|-7-777---------------------7\0-|


   VERSE
   0.13 - 0.40
G|---------------------------------------------------------------------------|
D|---------------------------------------------------------------------------|
A|-------9-7-5-2-0-----------9-7-5-2-0-----------9-7-5-2-0-------------------|
E|-7-777-----------456-7-777-----------456-7-777-----------456-7\0-----------|   
   
G|---------------------------------------------------------------------------|
D|-------7/9-----------------7/9------------------7/9------------------------|
A|-----------5-2-0---------------5-2-0---------------5-2-0-------------------|
E|-7-777-----------456-7-777-----------456-7-777-----------456-7-------------|


   PRE-CHORUS
   0.40 - 0.53
G|---------------------------------------------------------------------------------|  
D|-7h9-7h9-7h9-7h9-----7h9-7h9-7h9-7h9-----7h9-7h9-7h9-7h9-----7h9-7h9-7h9---------|
A|-----------------7\0-----------------7\0-----------------7\0-------------77777777| 
E|---------------------------------------------------------------------------------|


   CHORUS
   0.53 - 1.17
G|---------------------------------------------------------------------------|
D|-------------------------4-5-4-2-----------2-0-2---------------------------|
A|-----------------5-5-5-5-----------------------------5----77777777---------|
E|-7-7-7-7-7-7-7-7-----------------3-3-3-3-3-------7-7---7-------------------|

G|---------------------------------------------------|
D|-------------------------4-5-4-2-----------2-0-----|
A|-----------------5-5-5-5-----------------------2---|
E|-7-7-7-7-7-7-7-7-----------------3-3-3-3-3-------0-|


   PRE-VERSE
   1.17 - 1.30
G|---------------------------------------------------------------------------|
D|-------7/9-----------------7/9------------------7/9------------------------|
A|-----------5-2-0---------------5-2-0---------------5-2-0-------------------|
E|-7-777-----------456-7-777-----------456-7-777-----------456---------------|

G|-------------------------------|
D|-------7/9---------------------|
A|-----------5-2-0---------------|
E|-7-777-----------0000----------|


   VERSE
   1.30 - 1.58
G|---------------------------------------------------------------------------|
D|---------------------------------------------------------------------------|
A|-------9-7-5-2-0-----------9-7-5-2-0-----------9-7-5-2-0-------------------|
E|-7-777-----------456-7-777-----------456-7-777-----------456-7\0-----------|   

G|---------------------------------------------------------------------------|
D|-------7/9-----------------7/9------------------7/9------------------------|
A|-----------5-2-0---------------5-2-0---------------5-2-0-------------------|
E|-7-777-----------456-7-777-----------456-7-777-----------456-7-------------|


   PRE-CHORUS
   1.58 - 2.10
G|---------------------------------------------------------------------------------|  
D|-7h9-7h9-7h9-7h9-----7h9-7h9-7h9-7h9-----7h9-7h9-7h9-7h9-----7h9-7h9-7h9---------|
A|-----------------7\0-----------------7\0-----------------7\0-------------77777777| 
E|---------------------------------------------------------------------------------|


   CHORUS
   2.10 - 2.34
G|---------------------------------------------------------------------------|
D|-------------------------4-5-4-2-----------2-0-2---------------------------|
A|-----------------5-5-5-5-----------------------------5----77777777---------|
E|-7-7-7-7-7-7-7-7-----------------3-3-3-3-3-------7-7---7-------------------|

G|---------------------------------------------------|
D|-------------------------4-5-4-2-----------2-0-----|
A|-----------------5-5-5-5-----------------------2---|
E|-7-7-7-7-7-7-7-7-----------------3-3-3-3-3-------0-|


   BRIDGE
   2.34 - 3.00
G|------7--------9--------7--------------------------------------------------|
D|---------------------------------------------------------------------------|
A|-2-------2--------2--------7777-9999-10101010-12121212---------------------|
E|---------------------------------------------------------------------------|

G|---------------------------------------------------------------------------|
D|---------------------------------------------------------------------------|
A|-2-------5-------5---------7777-9999-10101010-12121212---------------------|
E|------------------3--------------------------------------------------------|


   PRE-CHORUS
   3.00 - 3.13
G|---------------------------------------------------------------------------------|  
D|-7h9-7h9-7h9-7h9-----7h9-7h9-7h9-7h9-----7h9-7h9-7h9-7h9-----7h9-7h9-7h9---------|
A|-----------------7\0-----------------7\0-----------------7\0-------------77777777| 
E|---------------------------------------------------------------------------------|


   CHORUS
   3.13 - 3.40
G|---------------------------------------------------------------------------|
D|-------------------------4-5-4-2-----------2-0-2---------------------------|
A|-----------------5-5-5-5-----------------------------5----77777777---------|
E|-7-7-7-7-7-7-7-7-----------------3-3-3-3-3-------7-7---7-------------------|

G|---------------------------------------------------|
D|-------------------------4-5-4-2-----------2-0-----|
A|-----------------5-5-5-5-----------------------2---|
E|-7-7-7-7-7-7-7-7-----------------3-3-3-3-3-------0-|

| /  slide up
| \  slide down
| h  hammer-on
| p  pull-off
| ~  vibrato
| +  harmonic
| x  Mute note
===============================================================================

            
            
Suggest correction
Creating personal tab
Creating personal tab
You can edit any tab online and save it as your Personal.

You can edit, replace or remove any tab part or add personal notes – all changes will be seen only by you.

Personal tabs can be accessed anytime from any device, even offline.
Learn more »
comments
print report bad tab
3 comments total.
-1 reply
13Kelly13 124 Nov 28, 2010 06:36 AM

This isnt tabbed in the most efficient way though it sounds right and it works

0 reply
patmcc1988 20 Aug 14, 2015 05:06 PM

Awesome job!

0 reply
Reesey418 54 Nov 18, 2015 07:55 AM

Great tab- I would suggest the following for the opening, though:

G|----------------------------------------------------------------------|
D|-----7/9----------------7/9------------------7/9----------------------|
A|---------5--------------------5------------------5--------------------|
E|-7-77------7-5-0-567-77---------7-5-0-567-77-------7-5-0-567-77-------|

And for the little fill right after the opening:

G|------------7-97---------------|
D|-------7-9-------987-----------|
A|----------------------5h7------|
E|-7-77----------------------7\0-|

Other than that, it looks pretty solid.

guest
You may want to rate the tab now too:
select rating
Wanna post a correction for this tab? Suggest correction