Oops, an error
Loading. Please wait.

Oh The Boss Is Coming Bass Tab

version 3
version 3

Whole song

Interactive

499 views 3 this week
no commentswrite comment
1 2 3 4 5
please rate
add to favorites
launch autoscroll
font size
0
reset
guitar tuner
Autoscroll
slow
fast
+/-
esc
set tempo
stop
Help us to improve Ultimate-Guitar.com Take our survey!
×
Contributor
Difficulty
novice
-------------------------------------------------------------------------------
               OH, THE BOSS IS COMING! - Arkells
                        From the album - Jackson Square
-------------------------------------------------------------------------------

Tabbed by: Diabolusinmusic (Talkbass handle)
E-mail: Don't e-mail me, just update the tab and credit me where due 

The timing and structure are not 100% accurate, this is an outline, you need
to listen to where the parts go and proper timing.  Some parts have more notes
that notated, listen for 1/8's notes and such.

The previous tab on here was pretty close but I thought it could be improved.
Here is my take on it, I hope it helps.  

The song is pretty straight forward.  You use the alternate verse part for the
first 1/2. You should be able to hear where he changes.  The always hit on the
same note, so listen for it.  He uses a different ending with the main riff
after the first chorus, listen for the change.  I notated the main riff before
it just so you can see it a little more clearly.  The song closes on an E but
I think it is just guitar and drums on the last hit.



Tuning:  Standard

Main riff/verse (2nd)             -Intro ending only      -The hit

G|--------------------------------|-----------7-9---------|------------------|
D|--------7-9-----------------:-x-|-------7-9-----9-8-7-5-|------------------|
A|----------------------------:-3-|-----------------------|------------------|
E|--7---7------10--7-5--0-5-6-----|--7--7-----------------|--7-\-------------|

Alternate verse (1st half)    -"Oh,oh,oh"

G|----------------------------|-----------------------|----------------------|
D|-------------------------:-x|--7-9--7-9--7-9-----:-x|-7-9--7-9--7-9--------|
A|----9-7------------------:-3|--------------------:-3|----------------7-7-7-|
E|-7-------10--7--5--0-5-6----|-----------------7/----|----------------------|

Chorus

G|---------------------------------------------------------------------------|
D|-------------------4-5-4-2----------5-2---2--------------------------------|
A|-2-2-2-2---5-5-5-5----------------------5----2-2-5-2-5------------CONT'D---|
E|---------------------------3-3-3-3----------------------0-0-0-0------------|

G|---------------------------------------------------------------------------|
D|-------------------4-5-4-2----------5-2------------------------------------|
A|-2-2-2-2---5-5-5-5----------------------5-2--------------------------------|
E|---------------------------3-3-3-3-----------0-----------------------------|

After 1st chorus                 


G|-------------------------------|-------------------------------------------|
D|------7-9------------------:-x-|------7-9----------------------------------|
A|---------------------------:-3-|-------------------------------------------|
E|-7--7------10--7--5--0-5-6-----|-7--7------10--7--0-0-0-0------------------|

Bridge

G|----4----------4-----------------------------------------------------------|
D|---------------------------------------------------------------------------|
A|-2------2---2--------------0--2---5--/7------------------------------------|
E|------------------0--2--3----------------3---0-0--2-2--3-3--5-5------------|

comments
We did not receive enough feedback on this tab! Please rate:
print report bad tab
1 2 3 4 5
I want to post or [tab]
guest
You may want to rate the tab now too:
select rating
Please do not post tabs as comments. Select "correction" instead!