Oops, an error
Loading. Please wait.

Pullin Punches tab

version 1
version 1

Whole song

Interactive

by Arkells
6,185 views 15 this week
1 commentread comment
1 2 3 4 5
x 5
add to favorites
×
Save as Personal and add changes to this tab that will be seen only by you. Learn more ›
×
You can save this tab as Personal to edit and correct it or add notes. All changes will be seen only by you. Learn more »
launch autoscroll
font size
0
reset
how to read this tab
guitar tuner
edit
Autoscroll
slow
fast
+/-
esc
set tempo
stop
Author
Arkells - Pullin' Punches

Intro/Verse:

       "And no..."
e|-2-2-222-3-33-5-55--2-2-222-/8-88-7-77---|
B|-3-3-333-3-33-3-33--3-3-333-/8-88-8-88---|
G|-2-2-222-2-22-2-22--2-2-222-/7-77-7-77---|
D|-0-0-000-0-00-0-00--0-0-000--0-00-0-00---|
A|-----------------------------------------|
E|-----------------------------------------|

       "Against those..."
e|-2-2-222-3-33-5-55--2-2-222--0-00-0-00---|
B|-3-3-333-3-33-3-33--3-3-333--3-33-3-33---|
G|-2-2-222-2-22-2-22--2-2-222--0-00-0-00---|
D|-0-0-000-0-00-0-00--0-0-000--0-00-2-22---|
A|-----------------------------3-33--------|
E|-----------------------------------------|

   "Renegade escapades..."
e|-3---3---3---3---|
B|-3---3---3---3---|
G|-0---0---0---0---|
D|-0---2---0---2---|
A|-2---2---2---2---|
E|-3---0---3---0---|


Chorus:

   "Do you strike..."
e|-0---3---2-2-222-3-33-5-55---|
B|-1---3---3-3-333-3-33-3-33---|
G|-2---0---2-2-222-2-22-2-22---|
D|-2---0---0-0-000-0-00-0-00---|
A|-0---2-----------------------|
E|-----3-----------------------|

   "Or do you take 'em..."
e|-0---3---2-2-222-0-00-3-33---|
B|-1---3---3-3-333-3-33-3-33---|
G|-2---0---2-2-222-2-22-2-22---|
D|-2---0---0-0-000-0-00-0-00---|
A|-0---2-----------------------|
E|-----3-----------------------|

   "I know you're one..."
e|-0-------3---(0)---|
B|-0---3---3---(2)---|
G|-0---2---0---(2)---|
D|-2---0---0---(2)---|
A|-2---0---2---(0)---|
E|-0---2---3---------|


Bridge:
(Play an A chord over "And I know you'll never change" to get into bridge)

   "And when you're..."
e|-0---3---2---0---3---|
B|-0---3---3---0---3---|
G|-0---0---2---1---0---|
D|-2---0---0---2---0---|
A|-2---2-------2---2---|
E|-0---3-------0---3---|

   "But if you don't mind..."
e|-2---0-----------|
B|-3---3---3---3---|
G|-4---4---4---4---|
D|-4---4---4---4---|
A|-2---0---x---x---|
E|---------4---3---|


End:

   "I know you're one..."
e|-2---0-----------|
B|-3---3---3---3---|
G|-4---4---4---4---|
D|-4---4---4---4---|
A|-2---0---x---x---|
E|---------4---3---|


Repeat individual sections as necessary.

---

Lyrics:

Verse 1:
No you don't hold grudges
against those who hold blood love
You know his renegade escapades
can all be traced where he comes from

There were times he went missing
but you could always find his heart
When you head back to Kingston
you can find him on your old block

Chorus:
Do you strike those years from the record?
Or do you take em face to face?
I know you’re one to pull no punches honey
And I love you that way

Verse 2:
The phone rings in the morning
You keep picking up half asleep
At times, he'll call beaming
At times, he'll call you in defeat

Chorus

Bridge:
When you're pulling into town
you pass the places that you lived and as a kid you moved around
but if you don't mind,
but if you don't mind now
My darling, there's no reason to forget

Verse 3:
So cancel your plans for the weekend
You'll be taking that greyhound home
This ain't much for timing,
but you can't live scared of picking up the phone

Chorus

End:
I know you're one to pull no punches honey
I know you're one to pull no punches honey
And I love you that way

---

Shouldn't be too difficult to figure out the structure and timing, etc.
Enjoy.

            
            
Suggest correction
Creating personal tab
Creating personal tab
You can edit any tab online and save it as your Personal.

You can edit, replace or remove any tab part or add personal notes – all changes will be seen only by you.

Personal tabs can be accessed anytime from any device, even offline.
Learn more »
comments
print report bad tab
1 comment total.
0 reply
Josh_ch 10 Apr 09, 2010 07:44 AM

I'm pretty sure the whole thing is wrong. How could UG accept this shit? FIVE STARS!! :D

guest
You may want to rate the tab now too:
select rating
Wanna post a correction for this tab? Suggest correction