Oops, an error
Loading. Please wait.

Swallow Tab

225 views 1 this week
no commentswrite comment
1 2 3 4 5
accurate
x 3
add to favorites
launch autoscroll
font size
0
reset
how to read this tab
guitar tuner
Tab Pro tools
  • play this tab
  • loop segment
  • change instrument
  • show fretboard
  • metronome
Autoscroll
slow
fast
+/-
esc
set tempo
stop
Contributor
Band:Armchair Cynics
Song:Swallow
Website:armchaircynics.com
Tuning:Drop D w/capo 1

Intro Heavy Distortion
e|-----------------------------------------------------------------| 
B|-----------------------------------------------------------------|
G|----------------------6/7\6----------------------11/12\11--------|
D|--2--0-0-0--7--0-0-0--x-x-x--2--0-0-0--7--0-0-0---x--x-x---------| 
A|--2--0-0-0--7--0-0-0--4/5\4--2--0-0-0--7--0-0-0---9/10\9---------|
D|--2--0-0-0--7--0-0-0---------2--0-0-0--7--0-0-0------------------| 

On the ceiling the plaster moves like clouds that turn to shapes...
e|-----------------------------------------------------------------| 
B|-----------------------------------------------------------------|
G|----------0-------------0----------0------0-----0----------------|
D|------4-----4-------4-----4------4---4------4-----4--------------|
A|--0h2---2-----2---0---0-----0------------------------0--0--------|
D|----------------0--------------5--------5-----5------------------| 

She cast the darkest shade onto my heart ...
e|------0-----2p0-----------0-------5--2--------| 
B|--------3--------3----------3---3-------------|
G|----2-----0--------0----2-----0---------------|
D|--4-------------------4-----------------------| 
A|----------------------------------------------|
D|----------------------------------------------| 

So hard to swallow...
e|-------------------| 
B|-------------------|
G|--7----9----4------|
D|--7----7----4------| 
A|--5----7----2------|
D|--5----7----2------| 

Chorus
Here it comes the feeling that I don’t want to face this...
e|--2-----------2--------------------2------------------------| 
B|--2-----------2--------------------2-----------------5------|
G|--4--7--2--4--4--7--7--6-11/12\11--4--7--2--4--7-----x------|
D|--4--5--2--2--4--5--7--7--x--x-x---4--5--2--2--5--0--7------|
A|--2--5--0--2--2--5--5--4--9/10\9---2--5--0--2--5--0--7------|
D|-----5--0--2-----5--------------------5--0--2--5--0--7------| 

Solo
e|------2---3-2-3-3p2-----------------------------------------| 
B|--------0----------3---------------------6/7\6--------------|
G|--2h4------------------------------------x-x-x--------------|
D|---------------------2--0-0-0--7--0-0-0--4/5\4--------------| 
A|---------------------2--0-0-0--7--0-0-0---------------------|
D|---------------------2--0-0-0--7--0-0-0---------------------| 

e|------2---3-2-3-3p2-----------------------------------------| 
B|--------0---------------------------------6/7\6-------------|
G|--2h4---------------2---------------------x-x-x-------------|
D|----------------------2--0-0-0--7--0-0-0--4/5\4-------------| 
A|----------------------2--0-0-0--7--0-0-0--------------------|
D|----------------------2--0-0-0--7--0-0-0--------------------| 
comments
We did not receive enough feedback on this tab! Please rate:
print report bad tab
1 2 3 4 5
I want to post or [tab]
guest
You may want to rate the tab now too:
select rating
Please do not post tabs as comments. Select "correction" instead!