Oops, an error
Loading. Please wait.

Virtual Friend Chords

67 views 1 this week
no commentswrite comment
1 2 3 4 5
3 more votes to show rating
add to favorites
launch autoscroll
font size
0
reset
transpose
0
reset
display chords
guitar tuner
×
Best way to learn
"Virtual Friend"
Autoscroll
slow
fast
+/-
esc
set tempo
stop
Author
Difficulty
Capo
  follow
intermediate
3rd fret
About this tab version
Easy to read because intro and instrumental parts are with chords. Was this info helpful? Yes No
[Intro]

         Gm            C
e|---5-3----5-3|---5-3----5-3-|
B|--3---3--3---|--3---3--3----|
G|-3------3----|-3------3-----|
D|5------5-----|--------------|
A|-------------|3------3------|
E|-------------|--------------|


[Verse 1]

       Gm            C               Gm          C
e|---5-3----5-3---5-3----5-3---5-3----5-3---5-3----5-3-|
B|--3---3--3-----3---3--3-----3---3--3-----3---3--3----|
G|-3------3-----3------3-----3------3-----3------3-----|
D|5------5------------------5------5-------------------|   
A|-------------3------3--------------------------------|
E|-----------------------------------------------------|(x2)
Gm                         C
Autumn leaves we treat as litter....

       Bb        G#         Gm         D#
e|-------------------------------------5-|
B|-------------------------------------7-|
G|---7-----7-----5-----5-----3-----3---7-|
D|--8-8---8-8---6-6---6-6---5-5---5-5--7-|
A|-8---8-8---8-6---6-6---6-5---5-5---5-5-|
E|6-----6-----4-----4-----3-----3------5-|


[Chorus 1]

Bb                    G#
By the way are you watching?
Gm                   D
How the world says goodbye

Gm C Bb D# (x6)


[Verse 2]

  Gm          C             Bb       D#
Autumn leaves we treat as litter
 Gm      C           Bb       D#
People living on a bench
  Gm          C             Bb       D#
Childhood friends who lost contact
  Gm     C             Bb       D#
Fallen soldiers in a trench


[Chorus 1]

Gm      C              Gm      D#
By the way are you watching?
Gm       C            Gm      D#
How the world says goodbye


[Verse 3]

  Gm       Am            Gm     D#
Plastic islands in the ocean
 Gm        C              Gm      D#
Violent storms drop atom bombs
 Gm        C           Gm      D#
Hidden women walking slowly
 Gm        C                   Gm      D#
Desperate men singing sacred songs


[Chorus 1]

Gm       C            Gm      D#
By the way are you watching?
Gm       C            Gm      D#
How the world says goodnight

Gm C Gm D# (x6)


[Verse 4]

 Gm        C          Gm      D#
City boy selling countries
 Gm        C             Bb      D#
Surgeons lifting second skin
 Gm        C           Bb      D#
Sitting by software windows
Gm       C          Gm     Bb    D#
Trying to find a virtual friend


[Chorus 1]

 Gm                    C
By the way are you watching?
 Gm                    D
How the world says farewell
Suggest correction
Give kudos to tab author, rate the tab!
1 2 3 4 5
comments
print report bad tab
guest
You may want to rate the tab now too:
select rating
Wanna post a correction for this tab? Suggest correction