Oops, an error
Loading. Please wait.

Zocalo Tab

version 2
version 2

Whole song

4,106 views 1 this week
no commentswrite comment
1 2 3 4 5
2 more votes to show rating
add to favorites
launch autoscroll
font size
0
reset
how to read this tab
guitar tuner
Autoscroll
slow
fast
+/-
esc
set tempo
stop
Help us to improve Ultimate-Guitar.com Take our survey!
×
Difficulty
intermediate
Eller Van Buuren

E---------------------------------------|
A---4---4/6---4---4/6--6/8---8/9---6----|
D---------------------------------------|
G---------------------------------------|
B---------------------------------------|
e---------------------------------------|


Despues cuando hace los arreglos, no se exactamente lo que

hace, pero puedes improvisar sobre la escala major de C#

E-----------------------|
A----4---6--------------|
D--3-4---6--------------|
G--3---5-6---8----------|
B--------6-7---9--------|
e--------6---8-9--------|


ó tambien sobre estas notas:

E------------------------------------------------------|
A--8---------------------------------------------------|
D-----6-8----------------------------------------------|
G----------6-8-10-11-13--------------------------------|
B-----------------------14-16-18-----------------------|
e---------------------------------16--14--13--11--9----|
Suggest correction
Give kudos to tab author, rate the tab!
1 2 3 4 5
comments
print report bad tab
guest
You may want to rate the tab now too:
select rating
Wanna post a correction for this tab? Suggest correction