Oops, an error
Loading. Please wait.

Awkward Last Words Bass Tab

version 1
version 1

Whole song

Interactive

1,066 views 1 this week
no commentswrite comment
1 2 3 4 5
accurate
x 1
add to favorites
launch autoscroll
font size
0
reset
guitar tuner
Tab Pro tools
  • play this tab
  • loop segment
  • change instrument
  • show fretboard
  • metronome
Autoscroll
slow
fast
+/-
esc
set tempo
stop
Contributor
Difficulty
Tuning
novice
D A D G B E
Intro 0:00 - 0:30 [Bass enters at 0:07]
G:---------------------|
D:---------------------|
A:---------------------|
D:6~-16/-4~--6~-16/-4~-|

G:--------------------------------|
D:--------------------------------|
A:----------4/6-4-----------4/6-4-|
D:6~-16\-4~-------6~-16\-4~-------|

G:------------|
D:------------|
A:------------|
D:2~-4~-2~-4~-|

Verse 0:30 - 0:53
G:---------------------------------|
D:---------------------------------|
A:---------------------------------| X2
D:6-66-66-9-99-99-4-44-444-444-44--|

G:----------------------------------------------------------------|
D:----------------------------------------------------------------|
A:--------9-96-66----------666-44---------9-96-66----------444-66-|
D:6-66-66---------4-44-444--------6-66-66---------4-44-444--------|

Chorus 0:53 - 1:16
G:-----|--------------------------------------------------|
D:-----|--------------------------------------------------|
A:-----|--------------------------------------------------|
D:2~-2~|66-6-6-66-6-66-6-6-666-2-22-2-2-222-2-22-2-22-222-|

G:-----------------------|
D:-----------------------|
A:-----------------------|
D:66-6-6-66-6-66-6-6-666-|

Verse 1:16 - 1:52
G:--------------------------------|
D:--------------------------------|
A:--------------------------------|
D:6-66-66-9-99-99-4-44-444-444-44-|

G:-----------------------------------------|
D:-----------------------------------------| [Those are elevens and thirteens]
A:-----------------------------------------|
D:6-66-66-9-99-99-4-4/13131111998899111113-|

G:---------------------------------|
D:---------------------------------|
A:---------------------------------| X2
D:6-66-66-9-99-99-4-44-444-444-44--|

G:----------------------------------------------------------------|
D:----------------------------------------------------------------|
A:--------9-96-66----------666-44---------9-96-66----------444-66-|
D:6-66-66---------4-44-444--------6-66-66---------4-44-444--------|

Chorus 1:52 - 2:14
G:-------------------------------------------------------------------------|
D:-------------------------------------------------------------------------|
A:-------------------------------------------------------------------------|
D:2-2-2-22-22-2-22-22222-66-6-6-66-6-66-6-6-666-2-22-2-2-222-2-22-2-22-222-|

G:-----------------------|
D:-----------------------|
A:-----------------------|
D:66-6-6-66-6-66-6-6-666-|

Pre Outro 2:15 - 3:02
G:-------------------------------------|
D:----4444-------------6666-----66-44--| X2
A:-------------6666--------------------|
D:222------444------666-----666--------|

G:------------------------|
D:------------------------|  X2
A:------------------------|
D:222---444---666---666---|

G:----|--------------------------------------      ----|
D:----|--------------------------------------      ----|
A:----|--------------------------6--------4-- <-X2 ----|
D:6~--|16/-6-66-66-9-99-99-4-44----4-4-44---2      -2~-|

Outro 3:03 - 3:46
G:---------------------------------------------------------------------|
D:---------------------------------------------------------------------|
A:---------------------------------------------------------------------|
D:2-2-2-2-2-22-2-22-22222-66-6-6-6-6-66-6-66666666-2~-22-22-22-22-22-2-|

G:---------------------------------------------------------------------|
D:---------------------------------------------------------------------|
A:---------------------------------------------------------------------|
D:6-6-6-6-66-6-66-6-6-6-66-2-22-2-2-22-2-22-2-2-2-22-6-6-6-6-66-666666-|

G:-----------------------|
D:-----4444--------------|
A:---------------6666----|
D:6666------4444------6~-|
comments
We did not receive enough feedback on this tab! Please rate:
print report bad tab
1 2 3 4 5
I want to post or [tab]
guest
You may want to rate the tab now too:
select rating
Please do not post tabs as comments. Select "correction" instead!