Oops, an error
Loading. Please wait.

Awkward Last Words Tab

version 1
version 1

Whole song

Interactive

13,939 views 1 this week
6 commentsread comments
1 2 3 4 5
x 12
add to favorites
×
Save as Personal and add changes to this tab that will be seen only by you. Learn more ›
×
You can save this tab as Personal to edit and correct it or add notes. All changes will be seen only by you. Learn more »
save as personal
new!
launch autoscroll
font size
0
reset
how to read this tab
guitar tuner
Autoscroll
slow
fast
+/-
esc
set tempo
stop
Difficulty
Tuning
intermediate
D A D G B E
Title: Awkward Last Words
Artist: Armor For Sleep
Album: What To Do When You Are Dead

Copyright © Equal Vision Records 2005
Version 1.0 - 02/05/2005

Tabbed by: Chris Frazier (cdf0103@mail.ecu.edu)

This is the fourth in what I hope will become a series of tabs
from Armor For Sleep's sophomore album "What To Do When You Are
Dead". I hope you enjoy them and learn something. This is one
of the more difficult tracks on the album but is also one of
my favorites. If you have any questions, comments, or additions
PLEASE e-mail them to me at cdf0103@mail.ecu.edu and I'll add/change
them if they makes sense and of course give you full credit.

.  - palm mute
/  - slide up and down to
b  - Bend
() - Natural harmonics
*  - Pinch harmonics
h  - Hammer
p  - Pull off
"  - Tremolo Picking
x  - Mute

Tuning:(D A D G B E)

Intro (Right)
E|--------------------------------||-----------------------------------------------------||
B|----------------------------0---||-----------------------------------------------------||
G|-------4------8------3--------3-||-------3-----3---------3-----3---------3-----3----3--|| Part one x5
D|--------------------------------||--------------------------------------------------4--||Part two x1
A|-----6------9------4------4-----||-----2---------------4---------------2------------4--||
D|---6------9------4------4-------||---2---------------4---------------2--------------4--||


Intro (Left)
E|--------------------------------||-------------------------------||-----------4-------2-------2---------------4-------2-||
B|----------------------------0---||---4---4---4---4---2---2---2---||-------0-------0-------0-------0-------0-------0-----|| Part one x2
G|-------4------8------3--------3-||-----4---4---4---4---4---4---4-||---3-----3-------3-------3---------3-----3-------3---|| Part two x4
D|--------------------------------||-------------------------------||-----------------------------------------------------|| Part three x1
A|-----6------9------4------4-----||-------------------------------||-----------------------------------------------------||
D|---6------9------4------4-------||-------------------------------||-----------------------------------------------------||


Verse (Rythm)
E|------------------------------------------------------------||
B|------------------------------------------------------------||
G|---4--4-4---4-4--8--8-8---8-8--3--3-3---3-3-3---3-3-3---3-3-||
D|---6--6-6---6-6--9--9-9---9-9--4--4-4---4-4-4---4-4-4---4-4-||
A|---6--6-6---6-6--9--9-9---9-9--4--4-4---4-4-4---4-4-4---4-4-||
D|---6--6-6---6-6--9--9-9---9-9--4--4-4---4-4-4---4-4-4---4-4-||

Verse (Lead :42)
E|-------------------------------------------------------------------||
B|-----4---4---4---4---2---2---2---2---0---0---0---0---0---0---0---0-||
G|---4---4---4---4---4---4---4---4---3---3---3---3---3---3---3---3---||
D|-------------------------------------------------------------------||
A|-------------------------------------------------------------------||
D|-------------------------------------------------------------------||

Pre-Chorus (Right)
E|-----------------------------------------||
B|-----------------------------------------||
G|---4------8-8-8-8-8-8-8-8-8-8----8/11-11-||
D|---2------x-x-x-x-x-x-x-x-x-x-x--x/x--x--||
A|---2------6-6-6-6-6-6-6-6-6-6-x--6/9--9--||
D|---2--------------------------x----------||
                          

Pre-Chorus (Left)
E|---------------------------------------||
B|---------------------------------------||
G|---4------4-4-4-4-4-4-4-4-4-4--8/11-11-||
D|---2------2-2-2-2-2-2-2-2-2-2--x/x--x--||
A|---2------2-2-2-2-2-2-2-2-2-2--6/9--9--||
D|---2------2-2-2-2-2-2-2-2-2-2----------||


Chorus (Right)
E|--7---7---6---6---6---6---6---6---7---7---6---6---6--------------||
B|----4---4---4---4---4---4---4---4---4---4---4---4---4------------||
G|---------------------------------------------------------8-8/6-6-||
D|---------------------------------------------------------x-x/x-x-||
A|---------------------------------------------------------6-6/4-4-||
D|-----------------------------------------------------------------||

E|----------------------------------------------------------------||
B|--4---4---4---4-4-4---4-4-4---4-4---4-4---4-----4-4-4-----------||
G|--x---x---x---x-x-x---x-x-x---x-x---x-x---x-----x-x-x---8/11-11-||
D|--2---2---2---2-2-2---2-2-2---2-2---2-2---2-----2-2-2---x/x--x--||
A|--2---2---2---2-2-2---2-2-2---2-2---2-2---2-----2-2-2---6/9--9--||
D|--2---2---2---2-2-2---2-2-2---2-2---2-2---2-----2-2-2-----------||

E|--7---7---6---6---6---6---6---6---7---7---6---6---6---||
B|----4---4---4---4---4---4---4---4---4---4---4---4---4-||
G|------------------------------------------------------||
D|------------------------------------------------------||
A|------------------------------------------------------||
D|------------------------------------------------------||

Chorus (Left)
E|----------------------------------------------------------------||
B|----------------------------------------------------------------||
G|--4---4---4---4-4-4---4-4-4---4-4---4-4---4---4-4-4-4---8-8/6-6-||
D|--6---6---6---6-6-6---6-6-6---6-6---6-6---6---6-6-6-6---x-x/x-x-||
A|--6---6---6---6-6-6---6-6-6---6-6---6-6---6---6-6-6-6---6-6/4-4-||
D|--6---6---6---6-6-6---6-6-6---6-6---6-6---6---6-6-6-6-----------||

E|----------------------------------------------------------------||
B|----------------------------------------------------------------||
G|--4---4---4---4-4-4---4-4-4---4-4---4-4---4-----4-4-4---8/11-11-||
D|--2---2---2---2-2-2---2-2-2---2-2---2-2---2-----2-2-2---x/x--x--||
A|--2---2---2---2-2-2---2-2-2---2-2---2-2---2-----2-2-2---6/9--9--||
D|--2---2---2---2-2-2---2-2-2---2-2---2-2---2-----2-2-2-----------||

E|--------------------------------------------------------------||
B|--------------------------------------------------------------||
G|--4---4---4---4-4-4---4-4-4---4-4---4-4---4---4-4-4-4-4-4-4-4-||
D|--6---6---6---6-6-6---6-6-6---6-6---6-6---6---6-6-6-6-6-6-6-6-||
A|--6---6---6---6-6-6---6-6-6---6-6---6-6---6---6-6-6-6-6-6-6-6-||
D|--6---6---6---6-6-6---6-6-6---6-6---6-6---6---6-6-6-6-6-6-6-6-||


Post-Chorus (Right)
E|-------------------------------------------------||
B|-------------------------------------------------||
G|---4-4-6-8-8---8-8-8--8-8--9-9--8-8-8--6-6-8-8-6-||
D|---x-x-x-x-x---x-x-x--x-x--x-x--x-x-x--x-x-x-x-x-||
A|---2-2-4-6-6---6-6-6--6-6--7-7--6-6-6--4-4-6-6-4-||
D|-------------------------------------------------||

Post-Chorus (Left)
E|-------------------------------------------------||
B|-------------------------------------------------||
G|-------------------------------------------------||
D|-------------------------------------------------||
A|-------------------------------------------------||
D|---6-6-6-6-6---9-9-9--9-9--2-2--2-2-2--2-2-2-2-2-||

Breakdown Pt. 1 (Both)
E|--------------------------------------------------------------------------|| Left: Play four times
B|------------------------------------------------9-9-9-9-----------7-7-7-7-||
G|--------------------------------------------------------------------------|| Right: Play twice and
D|---2-2-2-2--4-4-4-4--4-4-4-4-----------6-6-6-6-----------6-6-6-6----------||   then play Breakdown
A|---2-2-2-2-----------4-4-4-4--6-6-6-6--6-6-6-6-----------6-6-6-6----------||   Pt. 2 twice
D|---2-2-2-2-----------4-4-4-4-----------6-6-6-6-----------6-6-6-6----------||

Breakdown Pt. 2 (Right)
E|--------------------------------------------------------------------------||
B|------------------------------------------------9-9-9-9-------------------||
G|------------------------------------------------------------------8-8-8-8-||
D|---2-2-2-2--4-4-4-4--4-4-4-4-----------6-6-6-6-----------6-6-6-6----------||
A|---2-2-2-2-----------4-4-4-4--6-6-6-6--6-6-6-6-----------6-6-6-6----------||
D|---2-2-2-2-----------4-4-4-4-----------6-6-6-6-----------6-6-6-6----------||

Breakdown Pt. 3 (Right)
E|-------------6h7p6----6h7p6---9--------------6h7p6----6h7p6---9------------||
B|---------7---------7--------7---7--------7---------7--------7---7--------7-|| While left guitar
G|---------------------------------------------------------------------------|| plays Verse (Rhythm)
D|---8--9----------------------------8--9----------------------------8--9----||
A|---------------------------------------------------------------------------||
D|---------------------------------------------------------------------------||

Outro Pt. 1 (Right)
E|------------------------------7"-----6"--------7"-----6"---------||
B|-----------------------------------------------------------------||
G|---8"-------8-8-8-8-8/11-11--------------------------------------||
D|---x"-------x-x-x-x-x/x--x---------------------------------------||
A|---6"-------6-6-6-6-6/9--9---------------------------------------||
D|-----------------------------------------------------------------||

Outro Pt. 1 (Left)
E|--------------------------------------------------------------------------||
B|--------------------------------------------------------------------------||
G|-------------------------8-8-8-8-8/11-11----------------------------------||
D|---2--2--2--2--2--2--2---x-x-x-x-x/x--x---6-6-6-6-6-6-6-6-6-6-6-6-6-6-6-6-||
A|---2--2--2--2--2--2--2---6-6-6-6-6/9--9---6-6-6-6-6-6-6-6-6-6-6-6-6-6-6-6-||
D|---2--2--2--2--2--2--2--------------------6-6-6-6-6-6-6-6-6-6-6-6-6-6-6-6-||

Outro Pt. 2
E|---------------------9"---11"---/14"---16"---18"---19"---21"---||
B|----9"---11"---12"---x"---x"----/x"----x"----x"----x"----x"----||
G|----x"---x"----x"----6"---8"----/11"---13"---15"---16"---18"---||
D|----6"---8"----9"----------------------------------------------||
A|---------------------------------------------------------------||
D|---------------------------------------------------------------||

Outro Pt. 3
E|-------------------------------------------||
B|-------------------------------------------||
G|-------------------------------------------||
D|---2-2-2-2--4-4-4-4--4-4-4-4-----------6---||
A|---2-2-2-2-----------4-4-4-4--6-6-6-6--6---||
D|---2-2-2-2-----------4-4-4-4-----------6---||
Suggest correction
comments
print report bad tab
6 comments total. Showing first comments.
0 reply
pmeg568c 460 Feb 28, 2005 07:00 PM

*** yes i love you

0 reply
fenderdude098 31 Jun 17, 2006 05:08 PM

intros wrong
just a little
one of the notes is open
arpeggio stuff

0 reply
'StoleN' 154 Jan 23, 2007 11:20 AM

yea its a little off, but gj 4*

guest
Wanna post a correction for this tab? Suggest correction