Oops, an error
Loading. Please wait.

Awkward Last Words Tab

version 2
version 2

Whole song

Interactive

974 views 3 this week
1 commentread comment
1 2 3 4 5
worth learning
x 3
add to favorites
launch autoscroll
font size
0
reset
how to read this tab
guitar tuner
Tab Pro tools
  • play this tab
  • loop segment
  • change instrument
  • show fretboard
  • metronome
Autoscroll
slow
fast
+/-
esc
set tempo
stop
Contributor
Difficulty
intermediate
Song:Awkward Last Words
Artist:Armor For Sleep
Album:What To Do When You Are Dead


intro 6x's                             then play this before distortion
                                         4x's on 4th time let ring out
|------------------------------------| |--------------------|     
|------------------------------------| |--------------------|
|------4--------8---------3-----3p2--| |------4-----4-------|
|------------------------------------| |--------------------|
|---6--------9--------4-----4--------| |---6-----6-------6~-|
|-4--------7--------2-----2----------| |-4-----4---------4~-|



Lead Guitar Plays This

|-----------------------------------------|
|--4----4----4----4----2----2----2----2---|
|----4-----4----4----4----4----4----4---4-|
|-----------------------------------------|
|-----------------------------------------|
|-----------------------------------------|


  then this to finish off the intro
|-----------4------2------2------------4-----2~-|
|-----------------------------------------------|
|-3h4--3h4-----4------4------3h4--3h4-----4-----|
|-----------------------------------------------|
|-----------------------------------------------|
|-----------------------------------------------|

all together
|-----------------------------|
|-----------------------------|
|---------444-44--------------|
|-666-66--444-44--4444444444--|
|-666-66--222-22--4444444444--|
|-444-44----------2222222222--|


verse ends on twice
|----|                |------------------|
|----|                |------------------|
|----|                |-8888888888888/11-|
|-2~-|                |-xxxxxxxxxxxxx-x--|
|-2~-|                |-6666666666666-9--|
|-0~-|                |------------------|


Chorus                                
rythym guitar                           Lead Guitar
|-----------------------------------|  |----------------------------------|
|-----------------------------------|  |----------------------------------|
|-----------------------------------|  |-16161616151515151616161615151515-|
|-6666666666666666-2222222222222222-|  |-xxxxxxxxxxxxxxxxxxxxxxxxxxxxxxxx-|
|-6666666666666666-2222222222222222-|  |-14141414141414141414141414141414-|
|-4444444444444444-0000000000000000-|  |----------------------------------|

back to verse again
but play this into it 2x's

|-----------------------------|
|-----------------------------|
|-----------------------------|
|-666666-999999-4444444444444-|
|-666666-999999-4444444444444-|
|-444444-777777-2222222222222-|



|-------------------------------|
|-------------------------------|
|---------------9999-8888888888-|
|-666666-999999-xxxx-xxxxxxxxxx-|
|-666666-999999-7777-6666666666-|
|-444444-777777-----------------|

play this very fast in the verse
|-----------------------------------------|
|--4----4----4----4----5----5----5----5---|
|----4-----4----4----4----4----4----4---4-|
|-----------------------------------------|
|-----------------------------------------|
|-----------------------------------------|


|-----------------------------------------|
|--2----2----2----2----2----2----2----2---|
|----4-----4----4----4----4----4----4---4-|
|-----------------------------------------|
|-----------------------------------------|
|-----------------------------------------|


verse 2 ends on twice (donnot ring out)
|-------------|                |------------------|
|-------------|                |------------------|
|-------------|                |-8888888888888/11-|
|-22222222222-|                |-xxxxxxxxxxxxx-x--|
|-22222222222-|                |-6666666666666-9--|
|-00000000000-|                |------------------|



after chorus 2nd time around play this 4x's
|-------------------------------------------------|
|-------------------------------------------------|
|------11111111------8888--------9999------7777---|
|-222--x-x-x-x--444--xxxx--666--------666---------|
|-222--9-9-9-9--444--6666--666--------666---------|
|-000-----------222--------444--------444---------|


bridge thingy
|-----------------------|
|-----------------------|
|-------44-4------------|
|-66-6--44-4--44444444--|
|-66-6--22-2--44444444--|
|-44-4--------22222222--|


repeat as needed
|--6h7---6h7-|
|------------|
|------------|
|------------|
|------------|
|------------|


come in with distortion
|-------------|                |------------------|
|-------------|                |------------------|
|-------------|                |-8888888888888/11-|
|-22222222222-|                |-xxxxxxxxxxxxx-x--|
|-22222222222-|                |-6666666666666-9--|
|-00000000000-|                |------------------|


rythym guitar                           Lead Guitar
|-----------------------------------|  |----------------------------------|
|-----------------------------------|  |----------------------------------|
|-----------------------------------|  |-16161616151515151616161615151515-|
|-6666666666666666-2222222222222222-|  |-xxxxxxxxxxxxxxxxxxxxxxxxxxxxxxxx-|
|-6666666666666666-2222222222222222-|  |-14141414141414141414141414141414-|
|-4444444444444444-0000000000000000-|  |----------------------------------|



|------------------------------|
|------------------------------|
|------11111111------8888------|
|-222--x-x-x-x--444--xxxx--6~--|
|-222--9-9-9-9--444--6666--6~--|
|-000-----------222--------4~--|


this isnt my first tab but it isnt my best either.so please understand im half awake right now.
comments
We did not receive enough feedback on this tab! Please rate:
print report bad tab
1 2 3 4 5
1 comment total.
0 reply
Chris814 wrote on July 13 2006, 01:09 am

This is in drop d and you're missing a lot.

I want to post or [tab]
guest
You may want to rate the tab now too:
select rating
Please do not post tabs as comments. Select "correction" instead!