Oops, an error
Loading. Please wait.

Basement Ghost Singing Bass Tab

version 1
version 1

Whole song

Interactive

725 views 1 this week
1 commentread comment
1 2 3 4 5
x 3
add to favorites
launch autoscroll
font size
0
reset
guitar tuner
Autoscroll
slow
fast
+/-
esc
set tempo
stop
Help us to improve Ultimate-Guitar.com Take our survey!
×
Author
Tuning
D A D G B E
Armor For Sleep
Basement Ghost Singing
What To Do When You Are Dead
Drop D

Bass comes in at 00:29
|------------------------------------|
|------------------------------------|
|------------------------------------|  x4
|-4-4-4---4-4-4----0-0-0---0-0-0-----|  


00:58
|--------------------------------------|
|--------------------------------------|
|--------------------------------------|  x2
|-9-9-9---9-9-9----7-7-7---7-7-7-------|


1:12
|------------------------------------|
|------------------------------------|
|------------------------------------|
|-4-4-4---4-4-4---4-4-4---4----------|


Chorus
|------------------------------------|
|------------------------------------|
|22222222---------00000000-----------|  x3
|---------00-0000----------22-2222---|


Post-Chorus  1:41
|------------------------------------|
|------------------------------------|
|------------------------------------|
|55555555555555554444444444444444----|


rest until 2:03

repeat verse 
repeat chorus

post chorus
|------------------------------------|
|------------------------------------|keep playing this riff until the end 
|------------------------------------|of the song and you fade out
|55555555555555554444444444444444----|







Suggest correction
Give kudos to tab author, rate the tab!
1 2 3 4 5
comments
print report bad tab
1 comment total.
0 reply
halfpastnever12 112 May 30, 2009 12:29 PM

The amount for each verse is completely off. And there are ring ons and stops that are not accounted for. I will be definately putting up a tab

guest
You may want to rate the tab now too:
select rating
Wanna post a correction for this tab? Suggest correction