Oops, an error
Loading. Please wait.

Basement Ghost Singing Tab

version 1
version 1

Whole song

Interactive

3,454 views 1 this week
1 commentread comment
1 2 3 4 5
accurate
x 6
add to favorites
launch autoscroll
font size
0
reset
how to read this tab
guitar tuner
Tab Pro tools
  • play this tab
  • loop segment
  • change instrument
  • show fretboard
  • metronome
×
Best way to learn
"Basement Ghost Singing"
Autoscroll
slow
fast
+/-
esc
set tempo
stop
Contributor
Tuning
D A D G B E
----------------------------------------------------------------------------
                     Basement Ghost Singing - Armor For Sleep
----------------------------------------------------------------------------
Tabbed by: Drake Merritt
Email: drakemerr@hotmail.com

This is really cool song, but when your playing the verses you need to add a
delay effect to your guitar to get the right sound. You may have to fiddle with the 
to get it right, but it sounds pretty amazing when you get it.

Tuning: Drop D

Guitar 1 (X2)
(0:00)
e|-------------------------------------------------------------------------|
B|-------------------------------------------------------------------------|
G|-------------------------------------------------------------------------|
D|----6---7---6-------6---7---6-------2---4---6-------11---9---7-----------|
A|--4---4---4---4---4---4---4---4---0---0---0---0---0----0---0---0---------|
D|4---------------4---------------0---------------0------------------------|
  . . . . . . . . . . . . . . . . . . . . . . . . . . .  . . . . .

(0:14) (X2)
e|-------------------------------------------------------------------------|
B|-------------------------------------------------------------------------|
G|-------------------------------------------------------------------------|
D|----12---11---11-------12---11---11-----11---9---9-------9---7---7-------|
A|--9----9----9----9---9----9----9------7----7---7---7---7---7---7---7-----|
D|9------------------9----------------7----------------7-------------------|
  . . .  . .  . .  . . . .  . .  . .  . . .  . . . . . . . . . . . . .

(0:29) (X4)
e|-------------------------------------------------------------------------|
B|-------------------------------------------------------------------------|
G|-------------------------------------------------------------------------|
D|----6---7---6-------6---7---6-------2---4---6-------11---9---7-----------|
A|--4---4---4---4---4---4---4---4---0---0---0---0---0----0---0---0---------|
D|4---------------4---------------0---------------0------------------------|
  . . . . . . . . . . . . . . . . . . . . . . . . . . .  . . . . .

(0:58) (X2)
e|-------------------------------------------------------------------------|
B|-------------------------------------------------------------------------|
G|-------------------------------------------------------------------------|
D|----12---11---11-------12---11---11-----11---9---9-------9---7---7-------|
A|--9----9----9----9---9----9----9------7----7---7---7---7---7---7---7-----|
D|9------------------9----------------7----------------7-------------------|
  . . .  . .  . .  . . . .  . .  . .  . . .  . . . . . . . . . . . . .

(1:12)
e|-------------------------------------------------------------------------|
B|-------------------------------------------------------------------------|
G|-------------------------------------------------------------------------|
D|----6---7---6-------6---7---6-------6---7---7---6------------------------|
A|--4---4---4---4---4---4---4---4---4---4---4---4-4------------------------|
D|4---------------4---------------4---------------4------------------------|
  . . . . . . . . . . . . . . . . . . . . . . . .

Guitar 1
(1:19) (X3)
e|-------------------------------------------------------------------------|
B|-------------------------------------------------------------------------|
G|-------------------------------------------------------------------------|
D|99999999------------77777777--22--2222-----------------------------------|
A|99999999--00--0000--77777777--22--2222-----------------------------------|
D|99999999--00--0000--77777777--22--2222-----------------------------------|

Guitar 2
(1:19) (X6)
e|-----------9---------------------12--------------------------------------|
B|-----10---------10---------10----------10--------------------------------|
G|9h11----11---11----11-9h11----11----11----11-----------------------------|
D|-------------------------------------------------------------------------|
A|-------------------------------------------------------------------------|
D|-------------------------------------------------------------------------|

Guitar 1
(1:41)
e|-------------------------------------------------------------------------|
B|-------------------------------------------------------------------------|
G|------------------------6-6-6-6b-6b-6b-6b-6-6-6-6-6----------------------|
D|5-5-5-5-5-5-5-5-5-5-5-5-x-x-x-x--x--x--x--x-x-x-x-x----------------------|
A|5-5-5-5-5-5-5-5-5-5-5-5-4-4-4-4b-4b-4b-4b-4-4-4-4-4----------------------|
D|5-5-5-5-5-5-5-5-5-5-5-5--------------------------------------------------|

Guitar 2
(1:41)
e|-----------9---------------9-----------------|
B|-----10--------------10--------------10------|
G|9h11----11---11-9h11----11---11-9h11----11---|
D|---------------------------------------------|
A|---------------------------------------------|
D|---------------------------------------------|

(1:45)
e|----------12---------------12----------------|
B|-----10--------------10---------------10-----|
G|9h11----11---11-9h11----11----11-9h11----11--|
D|---------------------------------------------|
A|---------------------------------------------|
D|---------------------------------------------|

Guitar 2
(1:48)
e|14b15r14-----------------------------------|
B|--------15-14-/10-10-10-10-10-10-10-12-----|
G|---------------------------------------11-9|
D|-------------------------------------------|
A|-------------------------------------------|
D|-------------------------------------------|

e|14b15r14-------------------------------------------|
B|--------15-14-/10-10-10-10-10-10---------10--------|
G|---------------------------------11-9-11----11-9-11|
D|---------------------------------------------------|
A|---------------------------------------------------|
D|---------------------------------------------------|

Guitar 1
(2:03) (X4)
e|-------------------------------------------------------------------------|
B|-------------------------------------------------------------------------|
G|-------------------------------------------------------------------------|
D|----6---7---6-------6---7---6-------2---4---6-------11---9---7-----------|
A|--4---4---4---4---4---4---4---4---0---0---0---0---0----0---0---0---------|
D|4---------------4---------------0---------------0------------------------|
  . . . . . . . . . . . . . . . . . . . . . . . . . . .  . . . . .

(2:31) (X2)
e|-------------------------------------------------------------------------|
B|-------------------------------------------------------------------------|
G|-------------------------------------------------------------------------|
D|----12---11---11-------12---11---11-----11---9---9-------9---7---7-------|
A|--9----9----9----9---9----9----9------7----7---7---7---7---7---7---7-----|
D|9------------------9----------------7----------------7-------------------|
  . . .  . .  . .  . . . .  . .  . .  . . .  . . . . . . . . . . . . .

(2:46)
e|-------------------------------------------------------------------------|
B|-------------------------------------------------------------------------|
G|-------------------------------------------------------------------------|
D|----6---7---6-------6---7---6-------6---7---6-----6----------------------|
A|--4---4---4---4---4---4---4---4---4---4---4---4---4----------------------|
D|4---------------4---------------4---------------4-4----------------------|
  . . . . . . . . . . . . . . . . . . . . . . . . .

Guitar 1
(2:53)(X3)
e|-------------------------------------------------------------------------|
B|-------------------------------------------------------------------------|
G|-------------------------------------------------------------------------|
D|99999999------------77777777--22--2222-----------------------------------|
A|99999999--00--0000--77777777--22--2222-----------------------------------|
D|99999999--00--0000--77777777--22--2222-----------------------------------|

Guitar 2
(2:53) (X6)
e|-----------9---------------------12--------------------------------------|
B|-----10---------10---------10----------10--------------------------------|
G|9h11----11---11----11-9h11----11----11----11-----------------------------|
D|-------------------------------------------------------------------------|
A|-------------------------------------------------------------------------|
D|-------------------------------------------------------------------------|

Guitar 1
(3:15)
e|-------------------------------------------------------------------------|
B|-------------------------------------------------------------------------|
G|------------------------6-6-6-6b-6b-6b-6-6-6-6-6-6-----------------------|
D|5-5-5-5-5-5-5-5-5-5-5-5-x-x-x-x--x--x--x-x-x-x-x-x-----------------------|
A|5-5-5-5-5-5-5-5-5-5-5-5-4-4-4-4b-4b-4b-4-4-4-4-4-4-----------------------|
D|5-5-5-5-5-5-5-5-5-5-5-5--------------------------------------------------|

Guitar 2
(3:15)
e|-----------9---------------9-----------------|
B|-----10--------------10--------------10------|
G|9h11----11---11-9h11----11---11-9h11----11---|
D|---------------------------------------------|
A|---------------------------------------------|
D|---------------------------------------------|

(3:18)
e|----------12---------------12----------------|
B|-----10--------------10---------------10-----|
G|9h11----11---11-9h11----11----11-9h11----11--|
D|---------------------------------------------|
A|---------------------------------------------|
D|---------------------------------------------|

Guitar 1 - (Fades on 8th repetition)
(3:22) (X8)
e|-------------------------------------------------------------------------|
B|-------------------------------------------------------------------------|
G|------------------------6-6-6-6b-6b-6b-6-6-6-6-6-6-----------------------|
D|5-5-5-5-5-5-5-5-5-5-5-5-x-x-x-x--x--x--x-x-x-x-x-x-----------------------|
A|5-5-5-5-5-5-5-5-5-5-5-5-4-4-4-4b-4b-4b-4-4-4-4-4-4-----------------------|
D|5-5-5-5-5-5-5-5-5-5-5-5--------------------------------------------------|

Guitar 2
(3:44) (X8)
e|------12-----------12-----------------------12-----------12--------------|
B|14----------14-----------14-----14----14----------14-----------14--------|
G|---11----11-----11----11-----11----11----11----11-----11----11-----11----|
D|-------------------------------------------------------------------------|
A|-------------------------------------------------------------------------|
D|-------------------------------------------------------------------------|


| /  slide up
| \  slide down
| h  hammer-on
| p  pull-off
| b  bend
| ~  vibrato
| +  harmonic
| .  Mute note
============================================================================
comments
print report bad tab
1 comment total.
0 reply
U B the band wrote on August 7 2008, 12:33 pm

Pretty cool.

I want to post or [tab]
guest
You may want to rate the tab now too:
select rating
Please do not post tabs as comments. Select "correction" instead!