Oops, an error
Loading. Please wait.

Basement Ghost Singing Tab

version 2
version 2

Whole song

Interactive

5,068 views 1 this week
4 commentsread comments
1 2 3 4 5
excellent!
x 7
add to favorites
launch autoscroll
font size
0
reset
how to read this tab
guitar tuner
Tab Pro tools
  • play this tab
  • loop segment
  • change instrument
  • show fretboard
  • metronome
×
Best way to learn
"Basement Ghost Singing"
Autoscroll
slow
fast
+/-
esc
set tempo
stop
Difficulty
intermediate
Band: Armor For Sleep
Song: Basement Ghost Singing
Album: What To Do When You Are Dead

Tabbed by: Angel(oceasycore@yahoo.com)

Tunning: Drop D

This song uses a lot of delay during the verses. Check this out.


Intro/Verse(delay):
E|--------------------------|
B|--------------------------|
G|--------------------------|
D|-------6-----7-----6------|(x2)
A|----4-----4-----4-----4---|
D|-4------------------------|
   *  *  *  *  *  *  *  *

E|-------------------------------------------------|
B|-------------------------------------------------|
G|-------------------------------------------------|
D|-------2-----4-----6-----------11----9-----7-----|
A|----0-----0-----0-----0-----0-----0-----0-----0--|
D|-0-----------------------0-----------------------|
   *  *  *  *  *  *  *  *  *  *  *  *  *  *  *  *

2nd Part of the Verse:
E|--------------------------|
B|--------------------------|
G|--------------------------|
D|-------12----11----11-----|(x2)
A|----9-----9-----9-----9---|
D|-9------------------------|
   *  *  *  *  *  *  *  *

E|-------------------------------------------------|
B|-------------------------------------------------|
G|-------------------------------------------------|
D|-------11----9-----9-----------9-----7-----7-----|
A|----7-----7-----7-----7-----7-----7-----7-----7--|
D|-7-----------------------7-----------------------|
   *  *  *  *  *  *  *  *  *  *  *  *  *  *  *  *

(Second Guitar in the background with Effects)
E|-------------------------------------------------|
B|-------------------------------------------------|
G|-------2~---------1~-----------------------------|
D|----4~---------2~--------------------------------|
A|-2~---------0~-----------------------------------|
D|-------------------------------------------------|

Pre-Chorus:
E|--------------------------|
B|--------------------------|
G|--------------------------|
D|-------6-----7-----6------|(x3)
A|----4-----4-----4-----4---|
D|-4------------------------|
   *  *  *  *  *  *  *  *
====================================================================|

Chorus LEAD:
E|------------9----------------------12------|
B|------10------10----10--------10------9~---|
G|-9/11----11------11------9/11----9---------|
D|-------------------------------------------|(x6)
A|-------------------------------------------|
D|-------------------------------------------|

Chorus Rythem:
E|-------------------------------------------------|
B|-------------------------------------------------|
G|--4444444-----------2222222----------------------|
D|--4444444--00-0000--2222222--22-2222-------------|(x3)
A|--2222222--00-0000--0000000--22-2222-------------|
D|-----------00-0000-----------22-2222-------------|

Post Chorus:
E|----------9~----------9~----------9~----------9~----------9~--|
B|-------10~---------10~---------10~---------10~---------10~----|
G|--9/11~-------9/11~-------9/11~-------9/11~-------9/11~-------|
D|--------------------------------------------------------------|
A|--------------------------------------------------------------|
D|--------------------------------------------------------------|

Post Chorus Rythem:
E|-------------------------------------------------|
B|-------------------------------------------------|
G|-----------------6b7~~~~~~~b6--------------------|
D|-7777777777777-----------------------------------|
A|-5555555555555-----------------------------------|
D|-5555555555555---444444444444--------------------|

====================================================================|

Solo Lead:
E|--14b15-10-9-------------------------------------|
B|-------------10-10-10-10-10-10/12----------------|
G|----------------------------------9/11-9~--------|
D|-------------------------------------------------|
A|-------------------------------------------------|
D|-------------------------------------------------|
continued...
E|--14b15-10-9----------------------------------------------------------------|
B|-------------10-10-10-10-10--10----------10---------10---------10-(fade out)|
G|--------------------------------/11-9-11----11-9-11----11-9-11--------------|
D|----------------------------------------------------------------------------|
A|----------------------------------------------------------------------------|
D|----------------------------------------------------------------------------|

Solo Rythem: with Delay.
E|--------------------------|
B|--------------------------|
G|--------------------------|
D|-------12----11----11-----|(x2)
A|----9-----9-----9-----9---|
D|-9------------------------|
   *  *  *  *  *  *  *  *

E|-------------------------------------------------|
B|-------------------------------------------------|
G|-------------------------------------------------|
D|-------11----9-----9-----------9-----7-----7-----|
A|----7-----7-----7-----7-----7-----7-----7-----7--|
D|-7-----------------------7-----------------------|
   *  *  *  *  *  *  *  *  *  *  *  *  *  *  *  *

====================================================================|

Second Verse:
E|--------------------------|
B|--------------------------|
G|--------------------------|
D|-------6-----7-----6------|(x2)
A|----4-----4-----4-----4---|
D|-4------------------------|
   *  *  *  *  *  *  *  *

E|-------------------------------------------------|
B|-------------------------------------------------|
G|-------------------------------------------------|
D|-------2-----4-----6-----------11----9-----7-----|
A|----0-----0-----0-----0-----0-----0-----0-----0--|
D|-0-----------------------0-----------------------|
   *  *  *  *  *  *  *  *  *  *  *  *  *  *  *  *

2nd Part of the Verse:
E|--------------------------|
B|--------------------------|
G|--------------------------|
D|-------12----11----11-----|(x2)
A|----9-----9-----9-----9---|
D|-9------------------------|
   *  *  *  *  *  *  *  *

E|-------------------------------------------------|
B|-------------------------------------------------|
G|-------------------------------------------------|
D|-------11----9-----9-----------9-----7-----7-----|
A|----7-----7-----7-----7-----7-----7-----7-----7--|
D|-7-----------------------7-----------------------|
   *  *  *  *  *  *  *  *  *  *  *  *  *  *  *  *

(Second Guitar in the background with Effects)
E|-------------------------------------------------|
B|-------------------------------------------------|
G|-------2~---------1~-----------------------------|
D|----4~---------2~--------------------------------|
A|-2~---------0~-----------------------------------|
D|-------------------------------------------------|

Second Pre-Chorus:
E|--------------------------|
B|--------------------------|
G|--------------------------|
D|-------6-----7-----6------|(x3)
A|----4-----4-----4-----4---|
D|-4------------------------|
   *  *  *  *  *  *  *  *

====================================================================|

Second Chorus LEAD:
E|------------9----------------------12------|
B|------10------10----10--------10------9~---|
G|-9/11----11------11------9/11----9---------|
D|-------------------------------------------|(x6)
A|-------------------------------------------|
D|-------------------------------------------|

Second Chorus Rythem:
E|-------------------------------------------------|
B|-------------------------------------------------|
G|--4444444-----------2222222----------------------|
D|--4444444--00-0000--2222222--22-2222-------------|(x3)
A|--2222222--00-0000--0000000--22-2222-------------|
D|-----------00-0000-----------22-2222-------------|

Post Chorus:
E|----------9~----------9~----------9~----------9~----------9~--|
B|-------10~---------10~---------10~---------10~---------10~----|
G|--9/11~-------9/11~-------9/11~-------9/11~-------9/11~-------|
D|--------------------------------------------------------------|(x1)
A|--------------------------------------------------------------|
D|--------------------------------------------------------------|

Post Chorus Rythem:
E|-------------------------------------------------|
B|-------------------------------------------------|
G|-----------------6b7~~~~~~~b6--------------------|
D|-7777777777777-----------------------------------|
A|-5555555555555-----------------------------------|
D|-5555555555555---444444444444--------------------|

====================================================================|

Outro, Keep repeating until it fades out...

Outro Rythem:                      (background guitar @ 3:40)
E|-------------------------------|--------------------------------|
B|-------------------------------|--------------------------------|
G|-----------------6b7~~~~~~~b6--|--666--999--11-11-11------------|
D|-------------------------------|--xxx--xxx--x--x--x-------------|
A|-5555555555555-----------------|--444--777--9--9--9-------------|
D|-5555555555555---444444444444--|--------------------------------|

Outro Lead:
E|---------12~----------12~------------------------|
B|--14~----------14~-----------14~-----------------|
G|------11-----------11-----------11---------------|(x a lot)
D|-------------------------------------------------|
A|-------------------------------------------------|
D|-------------------------------------------------|
    *   *   *

Fade into the next song...

Enjoy.
comments
print report bad tab
4 comments total. Showing first comments.
+1 reply
Chris814 wrote on April 4 2006, 12:07 am

This tab is perfect version one is off.

-1 reply
paulie-cakes wrote on April 28 2006, 05:59 pm

chris814 ur gay, u dont know what ur takling about

+1 reply
guitarplayer54 wrote on August 11 2006, 01:01 pm

great job!

I want to post or [tab]
guest
You may want to rate the tab now too:
select rating
Please do not post tabs as comments. Select "correction" instead!