Oops, an error
Loading. Please wait.

Car Underwater Bass

version 1
version 1

Whole song

Interactive

2,345 views 1 this week
no commentswrite comment
1 2 3 4 5
x 3
add to favorites
×
Save as Personal and add changes to this tab that will be seen only by you. Learn more ›
×
You can save this tab as Personal to edit and correct it or add notes. All changes will be seen only by you. Learn more »
save as personal
new!
launch autoscroll
font size
0
reset
guitar tuner
Autoscroll
slow
fast
+/-
esc
set tempo
stop
Intro
E|------------------------------------------------------------------|
D|------------------------------------------------------------------|
A|-2222-----4----------------------2222-----4-----------------------|
D|------024--02420-00000000-000000------024---02420-0-0-0-0-0-0-0-0-|

Chorus
E|-----------------------|
D|-----------------------|
A|-----------------------|
D|-5-77-22-22\999-0-7777-|x4

Verse
E|---------------------------------|  |----------------------------------|
D|---------------------------------|  |----------------------------------|
A|-2222-----4----------------------|  |-2222-----4-----------------------|
D|------024--02420-00000000-000000-|x3|------024---02420-0-0-0-0-0-0-0-0-|


Chorus
E|-----------------------|
D|-----------------------|
A|-----------------------|
D|-5-77-22-22\999-0-7777-|x4

Bridge
E|------------------------------------------------------------------------------|
D|------------------------------------------------------------------------------|
A|-2-5~-------------------------2-5~------------------5-7--5--------------------|
D|-------0-2~----2-5~----0-2~--------7-9~--0-2~--2-5~--------02--22222222222222-|

E|--------------------------------|
D|--------------------------------|
A|--------------------------------|
D|-9-9-9-9-7-7-7-7-5-5-5-5-555-55-|x4

Singing and guitar for a bit. Then...
Chorus
E|-----------------------|
D|-----------------------|
A|-----------------------|
D|-5-77-22-22\999-0-7777-|x5

Outro
E|----------|
D|----------|
A|----------|
D|-5-77-22~-|x1
Suggest correction
Give kudos to tab author, rate the tab!
1 2 3 4 5
comments
print report bad tab
guest
Wanna post a correction for this tab? Suggest correction