Oops, an error
Loading. Please wait.

Car Underwater Tab

version 1
version 1

Interactive

4,888 views 6 this week
1 commentread comment
1 2 3 4 5
accurate
x 5
add to favorites
launch autoscroll
font size
0
reset
how to read this tab
guitar tuner
Tab Pro tools
  • play this tab
  • loop segment
  • change instrument
  • show fretboard
  • metronome
×
Best way to learn
"Car Underwater"
Autoscroll
slow
fast
+/-
esc
set tempo
stop
Title: Car Underwater
Artist: Armor For Sleep
Album: What To Do When You Are Dead

Copyright © Equal Vision Records 2005
Version 1.0 - 01/29/2005

Tabbed by: Chris Frazier (cdf0103@mail.ecu.edu)

This is the first in what I hope will become a series of tabs
from Armor For Sleep's sophomore album "What To Do When You Are
Dead". I hope you enjoy them and learn something. Without further
ado here is the first single, Car Underwater. If you have any
questions, comments, or additions PLEASE e-mail them to me
at cdf0103@mail.ecu.edu and I'll add/change them if they make
sense and of course give you full credit.

.  - palm mute
/  - slide up and down to
b  - Bend
() - Natural harmonics
*  - Pinch harmonics
h  - Hammer
p  - Pull off
"  - Tremolo Picking
x  - Mute

Tuning:(D A D G B E)

Intro (Right)
E|-----------------------------------------------------------------------------------------|
B|------------------------------------------------------5---------5-5----------------------|
G|---4-6-6--4-6-6--4-6--4-6--4-6-6-6-6--4-7-7--4-7-7--4-x--4-7-4--x-x-7--4-6-6--4-6-6--4-6-|
D|---4-4-4--4-4-4--4-4--4-4--4-4-4-4-4--4-4-4--4-4-4--4-4--4-4-4--4-4-4--4-4-4--4-4-4--4-4-|
A|-----------------------------------------------------------------------------------------|
D|-----------------------------------------------------------------------------------------|
     . . .  . . .  . .  . .  . . . . .  . . .  . . .  . .  . . .  . . .  . .  . . . .  . .

--------------------------------------------------||
--------------------------------------------------||
-4-6--4-6-6-6-6-----------------------------------||
-4-4--4-4-4-4-4------/4-4-4-4-4-4-2-2-2-----------||
-----------------4-4--------------------2-2-2-2-2-||
--------------------------------------------------||
 . .  . . . . .  . .  . . . . . . . . . . . . . .

Intro (Left)
E|-----------------------------------------------------------------------------------------|
B|-----------------------------------------------------------------------------------------|
G|-----------------------------------------------------------------------------------------|
D|-----------------------------------------------------------------------------------------|
A|---2-2-2--2-2-2--2-2--2-2--2-2-2-2-2-----------------------------------2-2-2--2-2-2--2-2-|
D|--------------------------------------0-0-0--0-0-0--0-0--0-0-0--0-0-0--------------------|
     . . .  . . .  . .  . .  . . . . .  . . .  . . .  . .  . . .  . . .  . .  . . . .  . .

--------------------------------------------------||
--------------------------------------------------||
--------------------------------------------------||
--------------------------------------------------||
-2-2--2-2-2-2-2-----------------------------------||
-----------------0-0--0-0-0-0-0-0-0-0-0-0-0-0-0-0-||
 . .  . . . . .  . .  . . . . . . . . . . . . . .

Bridge I (Right)
E|----------------------------------------------------------------------|
B|------------------------------------------------------5---------5-5---|
G|---4-6-6--4-6-6--4-6--4-6--4-6-6-6-6--4-7-7--4-7-7--4-x--4-7-4--x-x-7-|
D|---4-4-4--4-4-4--4-4--4-4--4-4-4-4-4--4-4-4--4-4-4--4-4--4-4-4--4-4-4-|
A|----------------------------------------------------------------------|
D|----------------------------------------------------------------------|
     . . .  . . .  . .  . .  . . . . .  . . .  . . .  . .  . . .  . . .


-------------------------------------||
-------------------------------------||
-6-6/9-9-9-9-9-9-9-9-7-7-7-7-4-4-4-4-||
-x-x/x-x-x-x-x-x-x-x-x-x-x-x-x-x-x-x-||
-4-4/7-7-7-7-7-7-7-7-5-5-5-2-2-2-2-2-||
-------------------------------------||

Bridge I (Left)
E|----------------------------------------------------------------------|
B|----------------------------------------------------------------------|
G|----------------------------------------------------------------------|
D|----------------------------------------------------------------------|
A|---2-2-2--2-2-2--2-2--2-2--2-2-2-2-2----------------------------------|
D|--------------------------------------0-0-0--0-0-0--0-0--0-0-0--0-0-0-|

-------------------------------------||
-------------------------------------||
-6-6/9-9-9-9-9-9-9-9-7-7-7-7-4-4-4-4-||
-x-x/x-x-x-x-x-x-x-x-x-x-x-x-x-x-x-x-||
-4-4/7-7-7-7-7-7-7-7-5-5-5-2-2-2-2-2-||
-------------------------------------||


Chorus (Rhythm)
E|---------------------------------------------------------------||
B|---------------------------------------------------------------||
G|-------------------------------4-4-4-4-4-4-4-4-2-2-2-2-2-2-2-2-||
D|---5-x-7-7-x-2-2-2-2-2-2-2-2-x-4-4-4-4-4-4-4-4-2-2-2-2-2-2-2-2-||
A|---5-x-7-7-x-2-2-2-2-2-2-2-2-x-2-2-2-2-2-2-2-2-0-0-0-0-0-0-0-0-||
D|---5-x-7-7-x-2-2-2-2-2-2-2-2-x---------------------------------||

Chorus (Lead)
E|---------------------------------------------------------------||
B|-------------------------------5---5---5---5-------------------||
G|---4---6-6---7-7-7--7--7--7----x---x---x---x---7---7---7---7---||
D|---4---4-4---4-4-4--4--4--4----4---4---4---4---4---4---4---4---||
A|---------------------------------------------------------------||
D|---------------------------------------------------------------||

Verse (Rhythm)
E|----------------------------------------------------------------------|
B|----------------------------------------------------------------------|
G|---4-4-4--4-4-4--4-4--4-4--4-4-4-4-4----------------------------------|
D|---4-4-4--4-4-4--4-4--4-4--4-4-4-4-4--0-0-0--0-0-0--0-0--0-0-0--0-0-0-|
A|---2-2-2--2-2-2--2-2--2-2--2-2-2-2-2--0-0-0--0-0-0--0-0--0-0-0--0-0-0-|
D|--------------------------------------0-0-0--0-0-0--0-0--0-0-0--0-0-0-|
     . . .  . . .  . .  . .  . . . . .  . . .  . . .  . .  . . .  . . .

---------------------------------------------------------------------||
---------------------------------------------------------------------||
-4-4-4--4-4-4--4-4--4-4--4-4-4-4-4-----------------------------------||
-4-4-4--4-4-4--4-4--4-4--4-4-4-4-4--0-0--0-0-0-0-0-0-0-0-0-0-0-0-0-0-||
-2-2-2--2-2-2--2-2--2-2--2-2-2-2-2--0-0--0-0-0-0-0-0-0-0-0-0-0-0-0-0-||
------------------------------------0-0--0-0-0-0-0-0-0-0-0-0-0-0-0-0-||
 . .  . . . .  . .  . .  . . . . .  . .  . . . . . . . . . . . . . .


Verse (Lead)
E|---------------------------------------------------------------------|
B|---------------------------------------------------------------------|
G|--/4-----------------------------------------------------------------|
D|---------------------------------------------------------------------|
A|---------------------------------------------------------------------|
D|---------------------------------------------------------------------|

----------------------------------------------------------------------||
-------------------------------------10/5---------5/7-----------------||
-/4-------------------------------------------------------------------||
----------------------------------------------------------------------||
----------------------------------------------------------------------||
----------------------------------------------------------------------||


Verse (Continued)(Lead)
E|---------------------------------------------------------------------|
B|---------------------------------------------------------------------|
G|--/4-----------------------------------------------------------------|
D|---------------------------------------------------------------------|
A|---------------------------------------------------------------------|
D|---------------------------------------------------------------------|

--5-------------------------------------------------------------------||
----------5-----------------------------------------------------------||
----------------------------/4----6-6/9-9-9-9-9-9-9-9-7-7-7-7-4-4-4-4-||
----------------------------------x-x/x-x-x-x-x-x-x-x-x-x-x-x-x-x-x-x-||
----------------------------------4-4/7-7-7-7-7-7-7-7-5-5-5-2-2-2-2-2-||
----------------------------------------------------------------------||

Breakdown I (Rhythm)
E|-------------------------------------------------------------------|
B|-------------------------------------------------------------------|
G|---------2-------------------------------------------2-------------|
D|--------------------4----------4----------0---------------------4--|
A|---2-5-----------------------------------------2-5-----------------|
D|--------------0-2--------2-5--------0-2-------------------0-2------|

-----------------------------------------------||
-----------------------------------------------|| Slowely bend the 2's at the end
-----------------------------------------------|| begin to palm mute them at the
--------4--------------------------------------|| start but lighten up throughout.
-----------------------------------------------||
--2-5--------0-2-2-2-2-2-2-2-2-2-2-2-2-2-2-2-2-||


Breakdown I (Lead)
E|------------------------------------------------------------------|
B|---------------------------------------------------7p5--------7p5-|
G|-----------------------------------------------4h6--------4h6-----|
D|------------------------------------------------------------------|
A|------------------------------------------------------------------|
D|------------------------------------------------------------------|

------------------------------------------------||
------7p5---------------------------------------|| Slowely bend the 2's at the end
--4h6-------------------------------------------|| begin to palm mute them at the
------------------------------------------------|| start but lighten up throughout.
------------------------------------------------||
--------------0-2-2-2-2-2-2-2-2-2-2-2-2-2-2-2-2-||


Breakdown II (Rhythm)
E|-------------------------------------------------------------||
B|-------------------------------------------------------------||
G|---4--4--4--4-4-4-2--2--2--2-2-2-----------------------------||
D|---4--4--4--4-4-4-2--2--2--2-2-2-5--5--5--5-5-0-5-5-5--5-5-5-||
A|---2--2--2--2-2-2-0--0--0--0-0-0-5--5--5--5-5-0-5-5-5--5-5-5-||
D|---------------------------------5--5--5--5-5-0-5-5-5--5-5-5-||
                                                  . . .  . . .

Breakdown II (Lead)
E|---------14--------14--------14--------14-12-||
B|---10-12-----10-12-----10-12-----10-12-------||  Plays Rythm part 1st time
G|---------------------------------------------||  then plays lead till rhythm
D|---------------------------------------------||  chorus comes in
A|---------------------------------------------||
D|---------------------------------------------||

Outro Chorus (Lead)
E|-------------------------------13-13-13-13-13-11-11-11-11-11-||
B|-------------------------------x--x--x--x--x--x--x--x--x--x--|| Instead of Chorus (Lead)
G|---7---9-9---4-4-4-4-4-4-4-4---11-11-11-11-11-9--9--9--9--9--|| play this the last few times
D|---5---7-7---2-2-2-2-2-2-2-2---------------------------------||
A|-------------------------------------------------------------||
D|-------------------------------------------------------------||
comments
print report bad tab
1 comment total.
0 reply
paulie-cakes wrote on April 28 2006, 06:30 pm

this is a joke

I want to post or [tab]
guest
You may want to rate the tab now too:
select rating
Please do not post tabs as comments. Select "correction" instead!