Oops, an error
Loading. Please wait.

Car Underwater Tab

version 2
version 2

Interactive

2,884 views 1 this week
2 commentsread comments
1 2 3 4 5
accurate
x 5
add to favorites
launch autoscroll
font size
0
reset
how to read this tab
guitar tuner
Tab Pro tools
  • play this tab
  • loop segment
  • change instrument
  • show fretboard
  • metronome
×
Best way to learn
"Car Underwater"
Autoscroll
slow
fast
+/-
esc
set tempo
stop
Band: Armor for Sleep
Song: "Car Underwater"
Album: What to do when you are dead

Intro
PM . . .  . . .  . .  . .  . . . . . . .. .  . . .  . .  . . .  . . .  
E|-----------------------------------|---------------------------------|
B|-----------------------------------|---------------------------------|
G|-----------------------------------|---------------------------------|
D|-91111—-91111--911—-911--911111111-|-91212--91212--914—-912-9-141412-|
A|-9-9-9--9-9-9--9-9--9-9--9-9-9-9-9—|-9-9-9--9-9-9--9-9--9-9-9--9-9-9-|
D|-9-9-9--9-9-9--9-9--9-9--9-9-9-9-9-|-0-0-0--0-0-0--0-0--0-0-0--0-0-0-|

PM . . .  . . .  . .  . .  . . . . . . . . . . . . .. . . .  . .
E|-----------------------------------|---------------------------|
B|-----------------------------------|---------------------------|
G|-----------------------------------|---------------------------|
D|-91111—-91111--911—-911--911111111-|------------------------xx-|
A|-9-9-9--9-9-9--9-9--9-9--9-9-9-9-9—|------/999999-777-------xx-|
D|-9-9-9--9-9-9--9-9--9-9--9-9-9-9-9-|-11-11------------99999-xx-|

Verse 1
PM . . .  . . .  . .  . .  . . . . . . .. .  . . .  . .  . . .  . . .  
E|-----------------------------------|---------------------------------|
B|-----------------------------------|---------------------------------|
G|-----------------------------------|---------------------------------|
D|-91111—-91111--911—-911--911111111-|-91212—-91212--914—-912-9-141412-|
A|-9-9-9--9-9-9--9-9--9-9--9-9-9-9-9—|-9-9-9—-9-9-9--9-9--9-9-9--9-9-9-|
D|-9-9-9--9-9-9--9-9--9-9--9-9-9-9-9-|-0-0-0--0-0-0--0-0--0-0-0--0-0-0-|

PM . . .  . . .  . .  . .  . . . . . . . . . . . . .. . . .  . .
E|-----------------------------------|---------------------------|
B|-----------------------------------|---------------------------|
G|-----------------------------------|---------------------------|
D|-91111—-91111--911—-911--911111111-|------------------------xx-|
A|-9-9-9--9-9-9--9-9--9-9--9-9-9-9-9—|------/999999-777-------xx-|
D|-9-9-9--9-9-9--9-9--9-9--9-9-9-9-9-|-11-11------------99999-xx-|

PM . . .  . . .  . .  . .  . . . . .  . .  . . . . . . .  . . .  . . .  
E|-----------------------------------|---------------------------------|
B|-----------------------------------|---------------------------------|
G|-----------------------------------|---------------------------------|
D|-91111—-91111--911—-911--911111111-|-91212--91212--914—-912-9-141412-|
A|-9-9-9--9-9-9--9-9--9-9--9-9-9-9-9—|-9-9-9--9-9-9--9-9--9-9-9--9-9-9-|
D|-9-9-9--9-9-9--9-9--9-9--9-9-9-9-9-|-0-0-0--0-0-0--0-0--0-0-0--0-0-0-|

PM . . .  . . .  . .  . .  . . . . .    
E|-----------------------------------|-------------------------------------|
B|-----------------------------------|-------------------------------------|
G|-----------------------------------|-6-6/9-9-9-9-9-9-9-9-7-7-7-4-4-4-4-4-|
D|-91111—-91111--911—-911--911111111-|-x-x/x-x-x-x-x-x-x-x-x-x-x-x-x-x-x-x-|
A|-9-9-9--9-9-9--9-9--9-9--9-9-9-9-9—|-4-4/7-7-7-7-7-7-7-7-5-5-5-2-2-2-2-2-|
D|-9-9-9--9-9-9--9-9--9-9--9-9-9-9-9-|-------------------------------------|

Chorus (4x)
E|-------------------------------------------------------------|
B|-----------0-0-0-0-0-0-0-0-----------------------------------| 
G|-7-x-9-9-x-0-0-0-0-0-0-0-0-x1111111111111111-9-9-9-9-9-9-9-9-|
D|-5-x-7-7-x-2-2-2-2-2-2-2-2-x-9-9-9-9-9-9-9-9-7-7-7-7-7-7-7-7-|
A|-5-x-7-7-x-2-2-2-2-2-2-2-2-x-9-9-9-9-9-9-9-9-7-7-7-7-7-7-7-7-|
D|-5-x-7-7-x-2-2-2-2-2-2-2-2-x-9-9-9-9-9-9-9-9-7-7-7-7-7-7-7-7-|

Verse 2 
   . ..  . . .  . .  . .  . . . . .  . . .  . . .
E|-----------------------------------------------|
B|-----------------------------------------------|
G|-----------------------------------------------|
D|-999-999--99--99—-99999--000--000--00-000--000-|
A|-999-999--99--99—-99999--000--000--00-000--000-|
D|-999-999--99--99—-99999--000--000--00—000--000-|

   . ..  . . .  . .  . .  . . . . .  . . .  . . .
E|-----------------------------------------------|
B|-----------------------------------------------|
G|-----------------------------------------------|
D|-999-999--99--99—-99999--000--000--00-000--000-|
A|-999-999--99--99—-99999--000--000--00-000--000-|
D|-999-999--99--99—-99999--000--000--00—000--000-|

   . ..  . . .  . .  . .  . . . . .  . . .  . . .
E|-----------------------------------------------|
B|-----------------------------------------------|
G|-----------------------------------------------|
D|-999-999--99--99—-99999--000--000--00-000--000-|
A|-999-999--99--99—-99999--000--000--00-000--000-|
D|-999-999--99--99—-99999--000--000--00—000--000-|
     
   . . .  . . .  . .  . .  . . . . .  . . .  . . .
E|-----------------------------------------------|-------------------------------------|
B|-----------------------------------------------|-------------------------------------|
G|-----------------------------------------------|-6-6/9-9-9-9-9-9-9-9-7-7-7-4-4-4-4-4-|
D|-999-999--99--99—-99999--000--000--00—000--000-|-x-x/x-x-x-x-x-x-x-x-x-x-x-x-x-x-x-x-|
D|-999-999--99--99—-99999--000--000--00—000--000-|-4-4/7-7-7-7-7-7-7-7-5-5-5-2-2-2-2-2-|
D|-999-999--99--99—-99999--000--000--00—000--000-|-------------------------------------|
     
Chorus (4x)
E|-------------------------------------------------------------|
B|-----------0-0-0-0-0-0-0-0-----------------------------------| 
G|-7-x-9-9-x-0-0-0-0-0-0-0-0-x1111111111111111-9-9-9-9-9-9-9-9-|
D|-5-x-7-7-x-2-2-2-2-2-2-2-2-x-9-9-9-9-9-9-9-9-7-7-7-7-7-7-7-7-|
A|-5-x-7-7-x-2-2-2-2-2-2-2-2-x-9-9-9-9-9-9-9-9-7-7-7-7-7-7-7-7-|
D|-5-x-7-7-x-2-2-2-2-2-2-2-2-x-9-9-9-9-9-9-9-9-7-7-7-7-7-7-7-7-|

Bridge
E|----------------------------------|---------------------------------------------||
B|----------------------------------|---------------------------------------------||
G|----------------------------------|---------------------------------------------||
D|-------7-------4-------4-------0--|------7--------4------4----------------------||
A|---2/5----------------------------|--2/5----------------------------------------||
D|----------0-2-----2/5-----0-2-----|-----------0-2----2/5-----0-2222222222222222-||

E|-------------------------------------------------------------||
B|-------------------------------------------------------------||
G|-------------------------------------------------------------||
D|---9--9--9--9-9-9-7--7--7--7-7-7-5--5--5--5-5-0-5-5-5--5-5-5-||
A|---9--9--9--9-9-9-7--7--7--7-7-7-5--5--5--5-5-0-5-5-5--5-5-5-||
D|---9--9--9--9-9-9-7--7--7--7-7-7-5--5--5--5-5-0-5-5-5--5-5-5-||

 
(3x)
E|---------14--------14--------14--------14--------14-------14-||
B|---10-12-----10-12-----10-12-----10-12-----10-12----10-12----||
G|-------------------------------------------------------------||
D|---9--9--9--9-9-9-7--7--7--7-7-7-5--5--5--5-5-0-5-5-5--5-5-5-||
A|---9--9--9--9-9-9-7--7--7--7-7-7-5--5--5--5-5-0-5-5-5--5-5-5-||
D|---9--9--9--9-9-9-7--7--7--7-7-7-5--5--5--5-5-0-5-5-5--5-5-5-||

Chorus (4x)
E|-------------------------------------------------------------|
B|-----------0-0-0-0-0-0-0-0-----------------------------------| 
G|-7-x-9-9-x-0-0-0-0-0-0-0-0-x1111111111111111-9-9-9-9-9-9-9-9-|
D|-5-x-7-7-x-2-2-2-2-2-2-2-2-x-9-9-9-9-9-9-9-9-7-7-7-7-7-7-7-7-|
A|-5-x-7-7-x-2-2-2-2-2-2-2-2-x-9-9-9-9-9-9-9-9-7-7-7-7-7-7-7-7-|
D|-5-x-7-7-x-2-2-2-2-2-2-2-2-x-9-9-9-9-9-9-9-9-7-7-7-7-7-7-7-7-|

Outro/Chorus
E|--------------------------------------------------------------||
B|--------------------------------------------------------------|| 
G|---7-x-9-9-x--4-4-4-4-4-4-4-4--11-11-11-11-11--9--9--9--9--9--|| 
D|---5-x-7-7-x--2-2-2-2-2-2-2-2---x--x--x--x--x--x--x--x--x--x--||
A|---5-x-7-7-x--2-2-2-2-2-2-2-2---9--9--9--9—-9--7--7--7--7--7--||
D|---5-x-7-7-x--2-2-2-2-2-2-2-2---------------------------------||

E|----------------|
B|----------------| 
G|-7-x-9-9-x-4-4--|
D|-5-x-7-7-x-2-2--|
A|-5-x-7-7-x-2-2--|
D|-5-x-7-7-x-2-2--|
comments
print report bad tab
2 comments total.
0 reply
manofsnapple wrote on March 12 2005, 12:00 am

This song is played in Drop D, thats where you first went wrong

0 reply
Strum_Life_Away wrote on June 25 2005, 12:00 am

Hey dumbass, look at the side bars. He said it was in drop d.

I want to post or [tab]
guest
You may want to rate the tab now too:
select rating
Please do not post tabs as comments. Select "correction" instead!