Oops, an error
Loading. Please wait.

Car Underwater Tab

version 5
version 5

Intro

Interactive

10,572 views 12 this week
6 commentsread comments
1 2 3 4 5
excellent!
x 8
add to favorites
launch autoscroll
font size
0
reset
how to read this tab
guitar tuner
Tab Pro tools
  • play this tab
  • loop segment
  • change instrument
  • show fretboard
  • metronome
Autoscroll
slow
fast
+/-
esc
set tempo
stop
Difficulty
Tuning
intermediate
D A D G B E
Armor For Sleep
Car Underwater
What To Do When You Are Dead
Tabbed By: Lee(Double D)

This is my first tab, and although other newbies may say that their tab
isn't accurate, I won't say this. I have played this song with my friend
and it sounds just like AFS. Please rate. 


Intro
PM .. . .  . .  . .   . . . . . .  . .  . . . .  . .  . .  . . . . 
E|--------------------------------|--------------------------------|
B|--------------------------------|--------------------------------|
G|--------------------------------|--------------------------------|
D|1111—9-9-1111-911—--911-91111-9-|1111-9-9-1111-911---911—91111-9-|
A|-9-9-9-9--9-9-9-9---9-9-9-9-9-9-|-9-9-9-9--9-9-9-9---9-9-9-9-9-9-|
D|-9-9-9-9--9-9-9-9---9-9-9-9-9-9-|-0-0-0-0--0-0-0-0---0-0-0-0-0-0-|

PM .. . .  . .  . .   . . . . . .  .  .  . . .  . . . . . . . .
E|--------------------------------|--------------------------------|
B|--------------------------------|--------------------------------|
G|--------------------------------|--------------------------------|
D|1111—9-9-1111-911—--911-91111-9-|-----------------------------xx-|
A|-9-9-9-9--9-9-9-9---9-9-9-9-9-9-|------/9-9-9-7-7-7-----------xx-|
D|-9-9-9-9--9-9-9-9---9-9-9-9-9-9-|-11-11-------------9-9-9-9-9-xx-|

Verse 1

E|--------------------------------|--------------------------------|
B|--------------------------------|--------------------------------|
G|--------------------------------|--------------------------------|
D|1111—9-9-1111-911—--911-91111-9-|1111-9-9-1111-911---911—91111-9-|
A|-9-9-9-9--9-9-9-9---9-9-9-9-9-9-|-9-9-9-9--9-9-9-9---9-9-9-9-9-9-|
D|-9-9-9-9--9-9-9-9---9-9-9-9-9-9-|-0-0-0-0--0-0-0-0---0-0-0-0-0-0-|

PM .. . .  . .  . .   . . . . . .  .  .  . . .  . . . . . . . .
E|--------------------------------|--------------------------------|
B|--------------------------------|--------------------------------|
G|--------------------------------|--------------------------------|
D|1111—9-9-1111-911—--911-91111-9-|-----------------------------xx-|
A|-9-9-9-9--9-9-9-9---9-9-9-9-9-9-|------/9-9-9-7-7-7-----------xx-|
D|-9-9-9-9--9-9-9-9---9-9-9-9-9-9-|-11-11-------------9-9-9-9-9-xx-|

E|--------------------------------|--------------------------------|
B|--------------------------------|--------------------------------|
G|--------------------------------|--------------------------------|
D|1111—9-9-1111-911—--911-91111-9-|1111-9-9-1111-911---911—91111-9-|
A|-9-9-9-9--9-9-9-9---9-9-9-9-9-9-|-9-9-9-9--9-9-9-9---9-9-9-9-9-9-|
D|-9-9-9-9--9-9-9-9---9-9-9-9-9-9-|-0-0-0-0--0-0-0-0---0-0-0-0-0-0-|

PM .. . .  . .  . .   . . . . . .  
E|--------------------------------|--------------------------------|
B|--------------------------------|--------------------------------|
G|--------------------------------|-6-6/9-9-9-7-7-7-4-4-4-4-4-4----|
D|1111—9-9-1111-911—--911-91111-9-|-x-x/x-x-x-x-x-x-x-x-x-x-x-x----|
A|-9-9-9-9--9-9-9-9---9-9-9-9-9-9-|-4-4/7-7-7-5-5-5-2-2-2-2-2-2----|
D|-9-9-9-9--9-9-9-9---9-9-9-9-9-9-|--------------------------------|

Chorus 1(4x)

Rhythm Guitar
E|---------------------------------------------------------------|
B|---------------------------------------------------------------| 
G|---------------------------------------------------------------|
D|-5-x-7-7-x-2-2-2-2-2-2-2-2-x-9-9-9-9-9-9-9-9-7-7-7-7-7-7-7-7---|
A|-5-x-7-7-x-2-2-2-2-2-2-2-2-x-9-9-9-9-9-9-9-9-7-7-7-7-7-7-7-7---|
D|-5-x-7-7-x-2-2-2-2-2-2-2-2-x-9-9-9-9-9-9-9-9-7-7-7-7-7-7-7-7---|

Lead Guitar
E|---------------------------------------------------------------|
B|---------------------------------------------------------------|
G|-7-x-9-9-x-1111111111111111-x-14141414141414141212121212121212-|
D|-x-x-x-x-x--x-x-x-x-x-x-x-x-x--x-x-x-x-x-x-x-x-x-x-x-x-x-x-x-x-|
A|-5-x-7-7-x--9-9-9-9-9-9-9-9-x-12121212121212121010101010101010-|
D|---------------------------------------------------------------|

Verse 2

E|--------------------------------|--------------------------------|
B|--------------------------------|--------------------------------|
G|--------------------------------|--------------------------------|
D|1111—9-9-1111-911—--911-91111-9-|1111-9-9-1111-911---911—91111-9-|
A|-9-9-9-9--9-9-9-9---9-9-9-9-9-9-|-9-9-9-9--9-9-9-9---9-9-9-9-9-9-|
D|-9-9-9-9--9-9-9-9---9-9-9-9-9-9-|-0-0-0-0--0-0-0-0---0-0-0-0-0-0-|

PM .. . .  . .  . .   . . . . . .  .  .  . . .  . . . . . . . .
E|--------------------------------|--------------------------------|
B|--------------------------------|--------------------------------|
G|--------------------------------|--------------------------------|
D|1111—9-9-1111-911—--911-91111-9-|-----------------------------xx-|
A|-9-9-9-9--9-9-9-9---9-9-9-9-9-9-|------/9-9-9-7-7-7-----------xx-|
D|-9-9-9-9--9-9-9-9---9-9-9-9-9-9-|-11-11-------------9-9-9-9-9-xx-|

E|--------------------------------|--------------------------------|
B|--------------------------------|--------------------------------|
G|--------------------------------|--------------------------------|
D|1111—9-9-1111-911—--911-91111-9-|1111-9-9-1111-911---911—91111-9-|
A|-9-9-9-9--9-9-9-9---9-9-9-9-9-9-|-9-9-9-9--9-9-9-9---9-9-9-9-9-9-|
D|-9-9-9-9--9-9-9-9---9-9-9-9-9-9-|-0-0-0-0--0-0-0-0---0-0-0-0-0-0-|

PM .. . .  . .  . .   . . . . . .  
E|--------------------------------|--------------------------------|
B|--------------------------------|--------------------------------|
G|--------------------------------|-6-6/9-9-9-7-7-7-4-4-4-4-4-4----|
D|1111—9-9-1111-911—--911-91111-9-|-x-x/x-x-x-x-x-x-x-x-x-x-x-x----|
A|-9-9-9-9--9-9-9-9---9-9-9-9-9-9-|-4-4/7-7-7-5-5-5-2-2-2-2-2-2----|
D|-9-9-9-9--9-9-9-9---9-9-9-9-9-9-|--------------------------------|

Chorus 2(4x)

Rhythm Guitar
E|---------------------------------------------------------------|
B|---------------------------------------------------------------| 
G|---------------------------------------------------------------|
D|-5-x-7-7-x-2-2-2-2-2-2-2-2-x-9-9-9-9-9-9-9-9-7-7-7-7-7-7-7-7---|
A|-5-x-7-7-x-2-2-2-2-2-2-2-2-x-9-9-9-9-9-9-9-9-7-7-7-7-7-7-7-7---|
D|-5-x-7-7-x-2-2-2-2-2-2-2-2-x-9-9-9-9-9-9-9-9-7-7-7-7-7-7-7-7---|

Lead Guitar
E|---------------------------------------------------------------|
B|---------------------------------------------------------------|
G|-7-x-9-9-x-1111111111111111-x-14141414141414141212121212121212-|
D|-x-x-x-x-x--x-x-x-x-x-x-x-x-x--x-x-x-x-x-x-x-x-x-x-x-x-x-x-x-x-|
A|-5-x-7-7-x--9-9-9-9-9-9-9-9-x-12121212121212121010101010101010-|
D|---------------------------------------------------------------|

Breakdown                             Rhythm Guitar
Lead Guitar              PM  . . . . . . . . . . . . . . . . 
E|-----------|           E|--------------------------------------|
B|-----------|           B|--------------------------------------| 
G|-----------|           G|--------------------------------------|
D|------7-5~-|(3x)       D|-0-2-2-2-2-2-2-2-2-2-2-2-2-2-2-2-2----|
A|-2s5-------|           A|-0-2-2-2-2-2-2-2-2-2-2-2-2-2-2-2-2----|
D|-----------|           D|-0-2-2-2-2-2-2-2-2-2-2-2-2-2-2-2-2----|

Rhythm Guitar
E|-------------------------------------------------------------|
B|-------------------------------------------------------------|
G|-------------------------------------------------------------|
D|---9--9--9--9-9-9-7--7--7--7-7-7-5--5--5--5-5-x-5-5-5--5-5-5-|(4x)
A|---9--9--9--9-9-9-7--7--7--7-7-7-5--5--5--5-5-x-5-5-5--5-5-5-|
D|---9--9--9--9-9-9-7--7--7--7-7-7-5--5--5--5-5-x-5-5-5--5-5-5-|

Lead Guitar
E|---------14--------14--------14--------14--------14-------14-|
B|---10h12-----10h12-----10h12-----10h12-----10h12----10h12----|
G|-------------------------------------------------------------|
D|-------------------------------------------------------------|(3x)
A|-------------------------------------------------------------|
D|-------------------------------------------------------------|

Chorus 3(4x)
Rhythm Guitar
E|---------------------------------------------------------------|
B|---------------------------------------------------------------| 
G|---------------------------------------------------------------|
D|-5-x-7-7-x-2-2-2-2-2-2-2-2-x-9-9-9-9-9-9-9-9-7-7-7-7-7-7-7-7---|
A|-5-x-7-7-x-2-2-2-2-2-2-2-2-x-9-9-9-9-9-9-9-9-7-7-7-7-7-7-7-7---|
D|-5-x-7-7-x-2-2-2-2-2-2-2-2-x-9-9-9-9-9-9-9-9-7-7-7-7-7-7-7-7---|

Lead Guitar
E|---------------------------------------------------------------|
B|---------------------------------------------------------------|
G|-7-x-9-9-x-1111111111111111-x-14141414141414141212121212121212-|
D|-x-x-x-x-x--x-x-x-x-x-x-x-x-x--x-x-x-x-x-x-x-x-x-x-x-x-x-x-x-x-|
A|-5-x-7-7-x--9-9-9-9-9-9-9-9-x-12121212121212121010101010101010-|
D|---------------------------------------------------------------|

Outro(2x)
Rhythm Guitar
E|---------------------------------------------------------------|
B|---------------------------------------------------------------| 
G|---------------------------------------------------------------|
D|-5-x-7-7-x-2-2-2-2-2-2-2-2-x-9-9-9-9-9-9-9-9-7-7-7-7-7-7-7-7---|
A|-5-x-7-7-x-2-2-2-2-2-2-2-2-x-9-9-9-9-9-9-9-9-7-7-7-7-7-7-7-7---|
D|-5-x-7-7-x-2-2-2-2-2-2-2-2-x-9-9-9-9-9-9-9-9-7-7-7-7-7-7-7-7---|

Lead Guitar
E|---------------------------------------------------------------|
B|---------------------------------------------------------------|
G|-7-x-9-9-x-1111111111111111-x-14141414141414141212121212121212-|
D|-x-x-x-x-x--x-x-x-x-x-x-x-x-x--x-x-x-x-x-x-x-x-x-x-x-x-x-x-x-x-|
A|-5-x-7-7-x--9-9-9-9-9-9-9-9-x-12121212121212121010101010101010-|
D|---------------------------------------------------------------|

Rhythm Guitar
E|--------------------------------|
B|--------------------------------| 
G|--------------------------------|
D|-5-x-7-7-x-2-2-2-2-2-2-2-2~~~~--|
A|-5-x-7-7-x-2-2-2-2-2-2-2-2~~~~--|
D|-5-x-7-7-x-2-2-2-2-2-2-2-2~~~~--|

Lead Guitar
E|---------------------------------|
B|---------------------------------|
G|-7-x-9-9-x-1111111111111111~~~~--|
D|-x-x-x-x-x--x-x-x-x-x-x-x-x~~~~--|
A|-5-x-7-7-x--9-9-9-9-9-9-9-9~~~~--|
D|---------------------------------|
comments
print report bad tab
6 comments total. Showing first comments.
0 reply
aolesen wrote on April 7 2008, 03:28 pm

the part just before the chorus is a bit wrong.....instead of sliding from the chord with your index on the A string 4th fret to the 7th fret then 5th....it should be 4th to 9th to 7th then 2nd.....sounds incredibly better and i just watched the play it live acoustically.......also the intro should be

-------------------- ----------------------
-------------------- ----------------------
-------------------- ----------------------
--11-11------------- to --12-12---------------
--9--9-------------- --9--9----------------
--9--9-------------- --0--0----------------

that's what they do live so....

0 reply
aolesen wrote on April 7 2008, 03:36 pm

damn that looks bad lets see....

---------------------------------------------
---------------------------------------------
---------------------------------------------
-11-11-11-11-11-11-11-11---11-11-11-11-11-11-
-9--9--9--9--9--9--9--9----9--9--9--9--9--9--
-9--9--9--9--9--9--9--9----9--9--9--9--9--9--
. . . . . . . . . . . . . .

then

---------------------------------------------
---------------------------------------------
---------------------------------------------
-12-12-12-12-12-12-12-12---12-12-12-12-12-12-
-9--9--9--9--9--9--9--9----9--9--9--9--9--9--
-0--0--0--0--0--0--0--0----0--0--0--0--0--0--
. . . . . . . . . . . . . .

there that's better....

0 reply
aolesen wrote on April 7 2008, 03:39 pm

and it's all palm muted like you have....this thing is so hard to make corrections with

I want to post or [tab]
guest
You may want to rate the tab now too:
select rating
Please do not post tabs as comments. Select "correction" instead!