Oops, an error
Loading. Please wait.

Car Underwater Tab

version 6
version 6

Interactive

1,941 views 1 this week
1 commentread comment
1 2 3 4 5
please rate
add to favorites
launch autoscroll
font size
0
reset
how to read this tab
guitar tuner
Autoscroll
slow
fast
+/-
esc
set tempo
stop
Help us to improve Ultimate-Guitar.com Take our survey!
×
My name is adam lutz this is my fourth tab. im pretty sure this is 100% right. 
any quiestions email me alutz1717@aim.com

DROP D

GUITAR 1 = LEAD
GUITAR 2 =RHYTHM

. = PALM MUTE
\ = SLIDE
H = HAMMER ON
P = PULL OFF

THERE IS ONLY ONE GUITAR IN THE INTRO. NOT TWO!!!!!


Intro: guitar 1 
elevens and twelves. i put lines between so you dont get confused
It helps to bar the top three strings (DAD) with your index finger for this part

e|-------------------------------------------------------------------------|
B|-------------------------------------------------------------------------|
G|-------------------------------------------------------------------------|
D|11-11-11-9--11-11-9--11---9--11-9--11-11-9-------------------------------|
A|12-12-12-12-12-12-12-12---12-12-12-12-12-11------------------------------|
D|9--9--9--9--9--9--9--9----9--9--9--9--9--9-------------------------------|
  . . . .  .  .  .  .  .    .  .  .  .  .  .

e|-------------------------------------------------------------------------|
B|-------------------------------------------------------------------------|
G|-------------------------------------------------------------------------|
D|11-11-11-9--11-11-9--11---9--11-9--11-11-9-------------------------------|
A|12-12-12-12-12-12-12-12---12-12-12-12-12-12------------------------------|
D|0--0--0--0--0--0--0--0----0--0--0--0--0--0-------------------------------|
  .  .  .  .  .  .  .  .    .  .  .  .  .  .

e|-------------------------------------------------------------------------|
B|-------------------------------------------------------------------------|
G|-------------------------------------------------------------------------|
D|-------------------------------------------------------------------------|
A|4-4-9-9-9-9-9-9-7-7-2-2-2-2-2-2-0----------------------------------------|
D|0-0-0-0-0-0-0-0-0-0-0-0-0-0-0-0-0----------------------------------------|
  . . . . . . . . . . . . . . . . .

Pre Chorus. Guitar 1 and 2

e|-------------------------------------------------------------------------|
B|-------------------------------------------------------------------------|
G|77-11-11-11-11-11-12-4444444---------------------------------------------|
D|xx-x--x--x--x--x--x--xxxxxxx0--------------------------------------------|
A|55-9--9--9--9--9--10-22222220--------------------------------------------|
D|-------------------------------------------------------------------------|

Chorus Guitar 2 and 1. 
e|-------------------------------------------------------------------------|
B|-------------------------------------------------------------------------|
G|-------------------------------------------------------------------------|
D|5xx7xx-22-22-2222-9-9-9999-7-7-7777--------------------------------------|
A|5xx7xx-22-22-2222-9-9-9999-7-7-7777--------------------------------------|
D|5xx7xx-22-22-2222-9-9-9999-7-7-7777--------------------------------------|

guitar two plays this  4 times guitar one plays once then

e|-------------------------------------------------------------------------|
B|-------------------------------------------------------------------------|
G|7x99x11-11-11-11-11-11-1414-14-141414-12-12/11-1111-1111-----------------|
D|xxxxxx--x--x--x--x--x--x-x--x--x-x-x--x--x--x--x-x--x-x------------------|
A|5x77x9--9--9--9--9--9--1212-12-121212-10-10/9--9-9--9-9------------------|
D|-------------------------------------------------------------------------|

then for the 3rd and 4th time play this pick around with this
e|-----0---0-0--0---------------------------------------------------|
B|------------------------------------------------------------------|
G|-6-----6--6--6----------------------------------------------------|
D|7-7---7--7--7-----------------------------------------------------|
A|------------------------------------------------------------------|
D|------------------------------------------------------------------|


Bridge both guitars                             guitar one plays this

e|-------------------------------------------------------------------------|
B|------------------------------------------------7p5~~~-x3----------------|
G|---------------------------------------------4h6-------------------------|
D|55-57~~02-25~~-02-25~~-02-20~~---------------------------02-2----9/------|
A|55-57~~02-25~~-02-25~~-02-20~~---------------------------02-2-x129/------|
D|55-57~~02-25~~-02-25~~-02-20~~---------------------------02-2----9/------|



Break down guitar one only plays this once. guitar two keeps playin

e|-------------------------------------------------------------------------|
B|-------------------------------------------------------------------------|
G|-------------------------------------------------------------------------|
D|9-999999x-7-777777x-5-555555-555x5---------------------------------------|
A|9-999999x-7-777777x-5-555555-555x5---------------------------------------|
D|9-999999x-7-777777x-5-555555-555x5---------------------------------------|

after the first time  guitar one plays this over and over till chorus
( those are natural harmonics)

e|------------------------------------------------------------------------|
B|------7*----------------------------------------------------------------|
G|---7*-------------------------------------------------------------------|
D|7*----------------------------------------------------------------------|
A|------------------------------------------------------------------------|
D|------------------------------------------------------------------------|





for the outro guitar 2 plays the chorus
guitar one plays the octive part of the chorus. the part where you play before 
the picking and after the cords 

thats it! plz rate
D|------------------------------------------------------------------------|

                                                              .




Suggest correction
Give kudos to tab author, rate the tab!
1 2 3 4 5
comments
print report bad tab
1 comment total.
0 reply
Joshua Garcia 4,730 wrote on April 24 2012, 06:09 pm

You're wrong. There totally is two guitars playing in the intro / verse. In fact, if you listen to the song with only one headphone, you can clearly hear the difference. Still a good tab, nonetheless.

guest
You may want to rate the tab now too:
select rating
Please do not post tabs as comments. Select "correction" instead!