Oops, an error
Loading. Please wait.

Chemicals Tab

854 views 1 this week
no commentswrite comment
1 2 3 4 5
excellent!
x 3
add to favorites
launch autoscroll
font size
0
reset
how to read this tab
guitar tuner
Autoscroll
slow
fast
+/-
esc
set tempo
stop
Help us to improve Ultimate-Guitar.com Take our survey!
×
Author
Difficulty
Tuning
intermediate
D A D G B E
Tabbed by: Joshua Garcia (joshuag523@aol.com)

Tabs For the song: Chemicals by Armor For Sleep
Please rate and let me know if you have any corrections. Thank you.

Tuning: Drop D (D A D G B E)


Intro
E||-------------------------------------------|
B||-------------------------------------------|
G||-----------------777-777-------------------|
D||-(/12\)-444-444--777-777--777-777-777-777--|
A||-(/12\)-444-444--555-555--777-777-777-777--|
D||-(/12\)-444-444-----------777-777-777-777--|


E||--------------------------------------|
B||--------------------------------------|
G||-----------777-777--------------------|
D||--444-444--777-777--777-777-77777777--|
A||--444-444--555-555--777-777-77777777--|
D||--444-444-----------777-777-77777777--|



Verse
E||-9-9-9-9-9-9--999--7-7-7-7-7-7-777--9-9-9-9-9-9-999--5-5-5-5-77777777---|
B||-7-7-7-7-7-7--777--7-7-7-7-7-7-777--7-7-7-7-7-7-777--7-7-7-7-55555555---|
G||------------------------------------------------------------------------|
D||------------------------------------------------------------------------|
A||------------------------------------------------------------------------|
D||------------------------------------------------------------------------|


E||-9-9-9-9-9-9--999--7-7-7-7-7-7-777--9-9-9-9-9-9-999--7-7-7-7-7-7-7777---|
B||-7-7-7-7-7-7--777--7-7-7-7-7-7-777--7-7-7-7-7-7-777--7-7-7-7-7-7-7777---|
G||------------------------------------------------------------------------|
D||------------------------------------------------------------------------|
A||------------------------------------------------------------------------|
D||------------------------------------------------------------------------|



Pre-Chorus
E||-9h10-9-10-9-10-9-10-9-10-9-10-9-10-9-10-9\-|
B||--------------------------------------------|
G||--------------------------------------------|
D||--------------------------------------------|
A||--------------------------------------------|
D||--------------------------------------------|


E||-5-7-5-7-5-7-5-7-4-5-4-5-4-5-4-5-|
B||---------------------------------|
G||---------------------------------|
D||---------------------------------|
A||---------------------------------|
D||---------------------------------|


E||-9-10-9-10-9-10-9-10-9-10-9-10-9-10-9-10---|
B||-------------------------------------------|
G||-------------------------------------------|
D||-------------------------------------------|
A||-------------------------------------------|
D||-------------------------------------------|


E||------------------|
B||------------------|
G||------------------|
D||------------------|
A||------------------|
D||-4444444422222222-|



Chorus
E||-------------------------------------|--------------------------------------|
B||-------------------------------------|--------------------------------------|
G||-----------777-777-------------------|-----------777-777--------------------|
D||--444-444--777-777--777-777-777-777--|--444-444--777-777--777-777-77777777--|
A||--444-444--555-555--777-777-777-777--|--444-444--555-555--777-777-77777777--|
D||--444-444-----------777-777-777-777--|--444-444-----------777-777-77777777--|


E||--------------------------------------|
B||--------------------------------------|
G||-----------777-777--------------------|
D||--444-444--777-777--777-777-77777777--|
A||--444-444--555-555--777-777-77777777--|
D||--444-444-----------777-777-77777777--|


E||-------------------------------------------------------------------|
B||-------------------------------------------------------------------|
G||-4-4-4-4-4-4-4-4-----------------4-4-4-4-4-4-4-4-------------------|
D||-4-4-4-4-4-4-4-4-4-4-4-4-4-4-4-4-4-4-4-4-4-4-4-4-4-4-4-4-22222222--|
A||-2-2-2-2-2-2-2-2-4-4-4-4-4-4-4-4-2-2-2-2-2-2-2-2-4-4-4-4-22222222--|
D||-----------------4-4-4-4-4-4-4-4-----------------4-4-4-4-22222222--|



Verse
E||-9-9-9-9-9-9--999--7-7-7-7-7-7-777--9-9-9-9-9-9-999--5-5-5-5-77777777---|
B||-7-7-7-7-7-7--777--7-7-7-7-7-7-777--7-7-7-7-7-7-777--7-7-7-7-55555555---|
G||------------------------------------------------------------------------|
D||------------------------------------------------------------------------|
A||------------------------------------------------------------------------|
D||------------------------------------------------------------------------|


E||-9-9-9-9-9-9--999--7-7-7-7-7-7-777--9-9-9-9-9-9-999--7-7-7-7-7-7-7777---|
B||-7-7-7-7-7-7--777--7-7-7-7-7-7-777--7-7-7-7-7-7-777--7-7-7-7-7-7-7777---|
G||------------------------------------------------------------------------|
D||------------------------------------------------------------------------|
A||------------------------------------------------------------------------|
D||------------------------------------------------------------------------|



Pre-Chorus
E||-9h10-9-10-9-10-9-10-9-10-9-10-9-10-9-10-9\-|
B||--------------------------------------------|
G||--------------------------------------------|
D||--------------------------------------------|
A||--------------------------------------------|
D||--------------------------------------------|


E||-5-7-5-7-5-7-5-7-4-5-4-5-4-5-4-5-|
B||---------------------------------|
G||---------------------------------|
D||---------------------------------|
A||---------------------------------|
D||---------------------------------|


E||-9-10-9-10-9-10-9-10-9-10-9-10-9-10-9-10---|
B||-------------------------------------------|
G||-------------------------------------------|
D||-------------------------------------------|
A||-------------------------------------------|
D||-------------------------------------------|


E||------------------|
B||------------------|
G||------------------|
D||------------------|
A||------------------|
D||-4444444422222222-|



Chorus
E||-------------------------------------|--------------------------------------|
B||-------------------------------------|--------------------------------------|
G||-----------777-777-------------------|-----------777-777--------------------|
D||--444-444--777-777--777-777-777-777--|--444-444--777-777--777-777-77777777--|
A||--444-444--555-555--777-777-777-777--|--444-444--555-555--777-777-77777777--|
D||--444-444-----------777-777-777-777--|--444-444-----------777-777-77777777--|


E||--------------------------------------|
B||--------------------------------------|
G||-----------777-777--------------------|
D||--444-444--777-777--777-777-77777777--|
A||--444-444--555-555--777-777-77777777--|
D||--444-444-----------777-777-77777777--|


E||-------------------------------------------------------------------|
B||-------------------------------------------------------------------|
G||-4-4-4-4-4-4-4-4-----------------4-4-4-4-4-4-4-4-------------------|
D||-4-4-4-4-4-4-4-4-4-4-4-4-4-4-4-4-4-4-4-4-4-4-4-4-4-4-4-4-22222222--|
A||-2-2-2-2-2-2-2-2-4-4-4-4-4-4-4-4-2-2-2-2-2-2-2-2-4-4-4-4-22222222--|
D||-----------------4-4-4-4-4-4-4-4-----------------4-4-4-4-22222222--|



Bridge
B||-------------------------------------------------------|
G||-------------------------------------------------------|
D||-----------------------4~---/6~---666666669999999b9b---|
A||-0~---------6~---7~\-----------------------------------|
D||-0~----------------------------------------------------|
D||-0~----------------------------------------------------|



Chorus
E||-------------------------------------|--------------------------------------|
B||-------------------------------------|--------------------------------------|
G||-----------777-777-------------------|-----------777-777--------------------|
D||--444-444--777-777--777-777-777-777--|--444-444--777-777--777-777-77777777--|
A||--444-444--555-555--777-777-777-777--|--444-444--555-555--777-777-77777777--|
D||--444-444-----------777-777-777-777--|--444-444-----------777-777-77777777--|


E||--------------------------------------|
B||--------------------------------------|
G||-----------777-777--------------------|
D||--444-444--777-777--777-777-77777777--|
A||--444-444--555-555--777-777-77777777--|
D||--444-444-----------777-777-77777777--|


E||-------------------------------------------------------------------|
B||-------------------------------------------------------------------|
G||-4-4-4-4-4-4-4-4-----------------4-4-4-4-4-4-4-4-------------------|
D||-4-4-4-4-4-4-4-4-4-4-4-4-4-4-4-4-4-4-4-4-4-4-4-4-4-4-4-4-22222222--|
A||-2-2-2-2-2-2-2-2-4-4-4-4-4-4-4-4-2-2-2-2-2-2-2-2-4-4-4-4-22222222--|
D||-----------------4-4-4-4-4-4-4-4-----------------4-4-4-4-22222222--|



Outro
E||--------------------------------------------------------------------|
B||--------------------------------------------------------------------|
G||--------------------------------------------------------------------| x2
D||-7777777777777777666666666666666644444444444444442222222222222222---|
A||-7777777777777777666666666666666644444444444444442222222222222222---|
D||-7777777777777777666666666666666644444444444444442222222222222222---|


E||--------------------------------------------------------------------|
B||--------------------------------------------------------------------|
G||--------------------------------------------------------------------|
D||-7777777777777777666666666666666644444444444444442222222211110000~--|
A||-7777777777777777666666666666666644444444444444442222222211110000~--|
D||-7777777777777777666666666666666644444444444444442222222211110000~--|




Tablature Legend
----------------
 h   hammer-on
 p   pull-off
 b   bend
 pb  pre-bend
 r   release bend
 ~   hold / vibrato
 .   palm mute
 /   slide up
 \   slide down
 *   pinch harmonic
 '   natural harmonic
 x   mute note
 T   tap
Suggest correction
Give kudos to tab author, rate the tab!
1 2 3 4 5
comments
print report bad tab
guest
You may want to rate the tab now too:
select rating
Please do not post tabs as comments. Select "correction" instead!