Oops, an error
Loading. Please wait.

Dream To Make Believe Tab

version 2
version 2

Whole song

Interactive

6,029 views 1 this week
4 commentsread comments
1 2 3 4 5
excellent!
x 9
add to favorites
launch autoscroll
font size
0
reset
how to read this tab
guitar tuner
Tab Pro tools
  • play this tab
  • loop segment
  • change instrument
  • show fretboard
  • metronome
×
Best way to learn
"Dream To Make Believe"
Autoscroll
slow
fast
+/-
esc
set tempo
stop
Contributor
Difficulty
Tuning
intermediate
D A D G B E
-------------------------------------------------------------------------------
                Dream To Make Believe - Armor For Sleep
-------------------------------------------------------------------------------

Tabbed by: Drake Merritt
Email: drakemerr@hotmail.com

Rhythm Guitar: Drop D
Lead Guitar: Drop D

Lead Guitar (0:00)
e|3-------------0----------3-------------0-----------------------------------|
B|--0-----3-------3---3------0-----3-------3---3-----------------------------|
G|----5-----5-------5----------5-----5-------5-------------------------------|
D|------5-----5------------------5-----5-------------------------------------|
A|---------------------------------------------------------------------------|
D|---------------------------------------------------------------------------|

Rhytyhm Guitar (0:04) X2
e|---------------------------------------------------------------------------|
B|----------------------------88888888888---88888888888----------------------|
G|55554444444---55554444444---99999999999---99999999999----------------------|
D|55555555555---55555555555---77777777777---77777777777----------------------|
A|33333333333---33333333333---77777777777---77777777777----------------------|
D|33333333333---33333333333---77777777777---77777777777----------------------|

Lead Guitar (0:04) X2
e|---------------------------------------------------------------------------|
B|---------------------------------------------------------------------------|
G|55554444444---55554444444---9999121212121212121212---999912121212121212----|
D|xxxxxxxxxxx---xxxxxxxxxxx---xxxx-x-x-x-x-x-x-x-x-x---xxxx-x-x-x-x-x-x-x----|
A|33333333333---33333333333---7777101010101010101010---777710101010101010----|
D|---------------------------------------------------------------------------|

Rythym Guitar (0:22) X2
e|----------------------------------------------------------------------------------|
B|----------------------------------------------------------------------------------|
G|----------------------------------------------------------------------------------|
D|-----3----3----3--------3----3----3------9---10----9---10------9---10----9---10---|
A|3333-3-33-3-33-3---3333-3-33-3-33-3---77-7-7--7-77-7-77-7---77-7-7--7-77-7-77-7---|
D|3333-3-33-3-33-3---3333-3-33-3-33-3---77-7-7--7-77-7-77-7---77-7-7--7-77-7-77-7---|
  ....   ..   ..     ....   ..   ..     ..   .    ..   ..     ..   .    ..   ..

Lead Guitar (0:22) X2                                        Play this the 2nd time.
e|----------------------------------------------------------|-3-------------0-------|
B|----------------------------------------------------------|---0-----3-------3---3-|
G|4-------------------------------------4-------------------|-----5-----5-------5---|
D|5-------------------------------------5-------------------|-------5-----5---------|
A|3-------------------------------------3-------------------|-----------------------|
D|----------------------------------------------------------|-----------------------|

Rhythym Guitar (0:40) X2
e|---------------------------------------------------------------------------|
B|---------------------------------------------------------------------------|
G|7-7-77-55-44----------------55-55-7-7-77-55-44---------------55-55---------|
D|0-0-00-00-00--9h10-10-10-10-33-33-0-0-00-00-00-9h10-10-10-10-33-33---------|
A|0-0-00-00-00--7-----7--7--7-33-33-0-0-00-00-00-7-----7--7--7-33-33---------|
D|0-0-00-00-00--7-----7--7--7-33-33-0-0-00-00-00-7-----7--7--7-33-33---------|

Lead Guitar (0:40) X2
e|---------------------------------------------------------------------------|
B|---------------------------------------------------------------------------|
G|7-7-77-55-44-444-5-5-55-55-55-5-7-77-77-55-44-444-5-5-55-55-55-------------|
D|x-x-xx-xx-xx-xxx-x-x-xx-xx-xx-x-x-xx-xx-xx-xx-xxx-x-x-xx-xx-xx-------------|
A|5-5-55-33-22-222/3-3-33-33-33-3/5-55-55-33-22-222/3-3-33-33-33-------------|
D|---------------------------------------------------------------------------|

Lead Guitar (1:03)
e|----------------------------------------------------------------------------------|
B|----------------------------------------------------------------------------------|
G|44---44---44---44-----------------------------------------------------------------|
D|xx---xx---xx---xx-----------------------------------------------------------------|
A|33---33---33---33-----------------------------------------------------------------|
D|----------------------------------------------------------------------------------|

Rhytyhm Guitar (1:06) X2
e|---------------------------------------------------------------------------|
B|----------------------------88888888888---88888888888----------------------|
G|55554444444---55554444444---99999999999---99999999999----------------------|
D|55555555555---55555555555---77777777777---77777777777----------------------|
A|33333333333---33333333333---77777777777---77777777777----------------------|
D|33333333333---33333333333---77777777777---77777777777----------------------|

Lead Guitar (1:06) X2
e|---------------------------------------------------------------------------|
B|---------------------------------------------------------------------------|
G|55554444444---55554444444---9999121212121212121212---999912121212121212----|
D|xxxxxxxxxxx---xxxxxxxxxxx---xxxx-x-x-x-x-x-x-x-x-x---xxxx-x-x-x-x-x-x-x----|
A|33333333333---33333333333---7777101010101010101010---777710101010101010----|
D|---------------------------------------------------------------------------|

Rythym Guitar (1:36) (Does not play at start... listen for when it comes in!)
e|----------------------------------------------------------------------------------|
B|----------------------------------------------------------------------------------|
G|----------------------------------------------------------------------------------|
D|---------------------------------------------------------------9---10----9---10---|
A|------------------------------------------------------------77-7-7--7-77-7-77-7---|
D|------------------------------------------------------------77-7-7--7-77-7-77-7---|
                                                              ..   .    ..   ..

Lead Guitar (1:23) X2                                        Play this the 2nd time.
e|----------------------------------------------------------|-3-------------0-------|
B|----------------------------------------------------------|---0-----3-------3---3-|
G|4-------------------------------------4-------------------|-----5-----5-------5---|
D|5-------------------------------------5-------------------|-------5-----5---------|
A|3-------------------------------------3-------------------|-----------------------|
D|----------------------------------------------------------|-----------------------|

Rhythym Guitar (1:41) X2
e|---------------------------------------------------------------------------|
B|---------------------------------------------------------------------------|
G|7-7-77-55-44----------------55-55-7-7-77-55-44---------------55-55---------|
D|0-0-00-00-00--9h10-10-10-10-33-33-0-0-00-00-00-9h10-10-10-10-33-33---------|
A|0-0-00-00-00--7-----7--7--7-33-33-0-0-00-00-00-7-----7--7--7-33-33---------|
D|0-0-00-00-00--7-----7--7--7-33-33-0-0-00-00-00-7-----7--7--7-33-33---------|

Lead Guitar (1:41)
e|---------------------------------------------------------------------------|
B|---------------------------------------------------------------------------|
G|7-7-77-55-44-444-5-5-55-55-55-5-7-77-77-55-44-444-5-5-55-55-55-------------|
D|x-x-xx-xx-xx-xxx-x-x-xx-xx-xx-x-x-xx-xx-xx-xx-xxx-x-x-xx-xx-xx-------------|
A|5-5-55-33-22-222/3-3-33-33-33-3/5-55-55-33-22-222/3-3-33-33-33-------------|
D|---------------------------------------------------------------------------|

Lead Guitar (1:53)
e|---------------------------------------------------------------------------|
B|---------------------------------------------------------------------------|
G|12-12-1212-1010-9-9-999-9-9-99-99-99-9/12-12-1212-1010-9-9-999-9-9-99-99---|
D|-x--x--x-x--x-x-x-x-xxx-x-x-xx-xx-xx-x--x--x--x-x--x-x-x-x-xxx-x-x-xx-xx---|
A|10-10-1010--8-8-7-7-777-7-7-77-77-77-7/10-10-1010--8-8-7-8-777-7-7-77-77---|
D|---------------------------------------------------------------------------|

Lead Guitar (2:04) X12
e|3-------------0----------3-------------0-----------------------------------|
B|--0-----3-------3---3------0-----3-------3---3-----------------------------|
G|----5-----5-------5----------5-----5-------5-------------------------------|
D|------5-----5------------------5-----5-------------------------------------|
A|---------------------------------------------------------------------------|
D|---------------------------------------------------------------------------|

Rythym Guitar (2:13) X2
e|----------------------------------------------------------------------------------|
B|----------------------------------------------------------------------------------|
G|----------------------------------------------------------------------------------|
D|33333333333-33333333333-77777777777-77777777777-----------------------------------|
A|33333333333-33333333333-77777777777-77777777777-----------------------------------|
D|33333333333-33333333333-77777777777-77777777777-----------------------------------|
  ........... ........... ........... ...........

Rhytyhm Guitar (2:31) X2
e|---------------------------------------------------------------------------|
B|----------------------------88888888888---88888888888----------------------|
G|55554444444---55554444444---99999999999---99999999999----------------------|
D|55555555555---55555555555---77777777777---77777777777----------------------|
A|33333333333---33333333333---77777777777---77777777777----------------------|
D|33333333333---33333333333---77777777777---77777777777----------------------|

Lead Guitar (2:31) X2
e|---------------------------------------------------------------------------|
B|---------------------------------------------------------------------------|
G|55554444444---55554444444---9999121212121212121212---999912121212121212----|
D|xxxxxxxxxxx---xxxxxxxxxxx---xxxx-x-x-x-x-x-x-x-x-x---xxxx-x-x-x-x-x-x-x----|
A|33333333333---33333333333---7777101010101010101010---777710101010101010----|
D|---------------------------------------------------------------------------|

Rhytyhm Guitar (2:49)
e|---------------------------------------------------------------------------|
B|---------------------------------88--88--88--88---88--88--88--88-----------|
G|55--44--44--44--55--44--44--44---99--99--99--99---99--99--99--99-----------|
D|55--55--55--55--55--55--55--55---77--77--77--77---77--77--77--77-----------|
A|33--33--33--33--33--33--33--33---77--77--77--77---77--77--77--77-----------|
D|33--33--33--33--33--33--33--33---77--77--77--77---77--77--77--77-----------|

Lead Guitar (2:31)
e|------------------------------------------------------------------------------|
B|------------------------------------------------------------------------------|
G|55--44--44--44--55--44--44--44---9-9--1212--1212--1212---99--1212--1212--1212-|
D|xx--xx--xx--xx--xx--xx--xx--xx---x-x---x-x---x-x---x-x---xx---x-x---x-x---x-x-|
A|33--33--33--33--33--33--33--44---7-7--1010--1010--1010---77--1010--1010--1010-|
D|------------------------------------------------------------------------------|


| /  slide up
| \  slide down
| h  hammer-on
| p  pull-off
| ~  vibrato
| +  harmonic
| x  Mute note
| .  Palm Mute
===============================================================================
comments
print report bad tab
4 comments total. Showing first comments.
+1 reply
Les0Paul wrote on October 1 2007, 05:14 pm

Awesome tab, I figured out most of the song already, but the rythem chorus was awesome. Very accurate, 5/5.

0 reply
xxj0g101xx wrote on April 5 2008, 11:30 pm

great tabs

0 reply
lassise wrote on July 7 2009, 09:36 pm

Great tabs. May be slightly better with lyrics, but overall 5/5

I want to post or [tab]
guest
You may want to rate the tab now too:
select rating
Please do not post tabs as comments. Select "correction" instead!