Oops, an error
Loading. Please wait.

End Of The World Tab

version 1
version 1

Whole song

Interactive

8,007 views 3 this week
4 commentsread comments
1 2 3 4 5
x 5
add to favorites
launch autoscroll
font size
0
reset
how to read this tab
guitar tuner
Autoscroll
slow
fast
+/-
esc
set tempo
stop
Help us to improve Ultimate-Guitar.com Take our survey!
×
Author
Difficulty
Tuning
novice
D A D G B E
----------------------------------------------------------------------------
                  END OF THE WORLD - Armor For Sleep
----------------------------------------------------------------------------
Tabbed by:Donnie San Diego
Email:imsexydonnie@msn.com www.myspace.com/imsexydonnie

Tuning:Drop D

(Intro/Bridge/Post Chorus/Chorus)
e|---0---0---0---0------0------0---0---0---0---0----0----0----------------|
B|-9---9---9---9---9/10---10\9---8---8---8---8---7b---7b------------------|
G|------------------------------------------------------------------------|
D|------------------------------------------------------------------------|
A|------------------------------------------------------------------------|
D|------------------------------------------------------------------------|

e|---0---0---0---0------0------0---0---0---0---0-------0-------0----------|
B|-9---9---9---9---9/10---10\9---8---8---8---8---10/12---12\10---10\9-----|
G|------------------------------------------------------------------------|
D|------------------------------------------------------------------------|
A|------------------------------------------------------------------------|
D|------------------------------------------------------------------------|

(Intro 2/Chorus)
e|------------------------------------------------------------------------|
B|------------------------------------------------------------------------|
G|------------------------------------------------------------------------|
D|-0-0-x-0-x-0-0-(x1)---2-(x8)-5--(x8)-9-(x16)----------------------------|
A|-0-0-x-0-x-0-0--------2------5-------7----------------------------------|
D|-0-0-x-0-x-0-0--------2------5-------7----------------------------------|

(Intro 2/Chorus)
e|-19-19------------19-19------------17-17------------17-17---------------|
B-------17-17-17-17b-----17-17-17-17b-----15-15-15-15b-----15-15-17-17----|
G|------------------------------------------------------------------------|
D|------------------------------------------------------------------------|
A|------------------------------------------------------------------------|
D|------------------------------------------------------------------------|

(Verse)
e|---------------------------------------------------------------------------|
B|---------------------------------------------------------------------------|
G|-7-(x5)-2-(x5)-4-(x5)------------------------------------------------------|
D|-5------0------2-----------------------------------------------------------|
A|-5------0------2-----------------------------------------------------------|
D|-5------0------2-----------------------------------------------------------|


(Verse)
e|-18-20x(ahaha)----------------------------------------------------------|
B|------------------------------------------------------------------------|
G|------------------------------------------------------------------------|
D|------------------------------------------------------------------------|
A|------------------------------------------------------------------------|
D|------------------------------------------------------------------------|

(Verse)
e|------------------------------------------------------------------------|
B|------------------------------------------------------------------------|
G|-12~-11~-13~-(x2)-------------------------------------------------------|
D|------------------------------------------------------------------------|
A|------------------------------------------------------------------------|
D|------------------------------------------------------------------------|

(Verse 2)
e|---(x5)-----------------------------------------------------------------|
B|-7-----(Palm Mute)------------------------------------------------------|
G|------------------------------------------------------------------------|
D|------------------------------------------------------------------------|
A|------------------------------------------------------------------------|
D|------------------------------------------------------------------------|

(Bridge)
e|------------------------------------------------------------------------|
B|-------------------------------------------------------------(Let Ring)-|
G|---(x5)---(x5)---(x5)---(x5)---(x5)-9-(x15)--(Play 2x Then)--4----------|
D|-5------7------2------0------5------7------------------------2----------|
A|-5------7------2------0------5------7------------------------2----------|
D|-5------7------2------0------5------7------------------------2----------|

(Outro)
e|------------------------------------------------------------------------|
B|------------------------------------------------------------------------|
G|-----(Let Ring)---------------------------------------------------------|
D|-2-2--------------------------------------------------------------------|
A|-2-2--------------------------------------------------------------------|
D|-2-2--------------------------------------------------------------------|


| /  slide up
| \  slide down
| h  hammer-on
| p  pull-off
| ~  vibrato
| +  harmonic
| x  Mute note
============================================================================
Suggest correction
comments
print report bad tab
4 comments total. Showing first comments.
-1 reply
switchfoot_girl 10 Aug 11, 2007 12:30 AM

hey. great job.

0 reply
gameonsanti 10 Feb 05, 2008 07:08 PM

very nice, cept the first intro, when it slides on the b string from 8 to 7, it goes 8-7, 8-7, 5
otherwise great =)

0 reply
Charlie:HCR 10 Feb 13, 2008 06:58 AM

whats the (ahaha) mean?

guest
You may want to rate the tab now too:
select rating
Wanna post a correction for this tab? Suggest correction