Oops, an error
Loading. Please wait.

Hold The Door Tab

version 1
version 1

Acoustic

Whole song

Interactive

3,333 views 3 this week
3 commentsread comments
1 2 3 4 5
please rate
add to favorites
launch autoscroll
font size
0
reset
how to read this tab
guitar tuner
Autoscroll
slow
fast
+/-
esc
set tempo
stop
Help us to improve Ultimate-Guitar.com Take our survey!
×
Author
Difficulty
Tuning
erijasoro 108
novice
D G C F A D
Any Questions or Suggestions?? just leave me a comment! =-)

This tab is based upon this vid, chek it out nukka!

http://www.youtube.com/watch?v=pjtBVNxobMA

INTRO:
Guitar 1
Chords
e  -----------------|
B  -----------------|
G  6----6----6----6-|
D  6----6----6----6-| X2
A  4----4----0----4-|
D  x----x----x----4-|


VERSE 1:
Guitar 1
e  -----------------|
B  -----------------|
G  6----6----6----6-|
D  6----6----6----6-|
A  4----4----0----4-|
D  x----x----x----4-|

e  -----------------|
B  -----------------|
G  6----6----6------|
D  6----6----6----2-|
A  4----4----0----2-|
D  x----x----x----2-|

e  -----------------|
B  -----------------|
G  6----6----6----6-|
D  6----6----6----6-| X2
A  4----4----0----4-|
D  x----x----x----4-|


INTERLUDE:
Guitar 2 =-)
e------------------------------------------------------------------------|
b------------------------------------------------------------------------|
g--------0---------------------------------0-----------------------------|
d------6-----6-------4--6-6b-6-4-6-------6-----6-------6-------------2---|
a-4-4------------0-0----------------4-4--------------7---7-----4---4-----|
E--------------------------------------------------7---------4---4-------|

Guitar 1 =-)
e  -----------------|
B  -----------------|
G  6----6----6----6-|
D  6----6----6----6-| X2
A  4----4----0----4-|
D  x----x----x----4-|


VERSE 2:
Guitar 1
e  -----------------|
B  -----------------|
G  6----6----6----6-|
D  6----6----6----6-|
A  4----4----0----4-|
D  x----x----x----4-|

e  -----------------|
B  -----------------|
G  6----6----6------|
D  6----6----6----2-|
A  4----4----0----2-|
D  x----x----x----2-|

e  -----------------|
B  -----------------|
G  6----6----6----6-|
D  6----6----6----6-| X2
A  4----4----0----4-|
D  x----x----x----4-|


CHORUS: X2
Guitar 1
Chords
e  -----------------|
B  -----------------|
G  9----9-----------|
D  9----9----7----7-|  X2
A  7----6----7----7-|
D  x----x----7----7-|

Guitar 2
Chords
e  ------------|
B  ------------|
G  9----4----2-|
D  9----x----2-|
A  7----6----0-|
E  x----x------|

Strumming is here for this part
e ------------------------------------------------|
B ------------------------------------------------|
G 9-9-9-9--11-11-11-11--13-13-13-13--14-14-14-14--|
D x-x-x-x--x--x--x--x---x--x--x--x---x--x--x--x---|
A 7-7-7-7--9--9--9--9---11-11-11-11--12-12-12-12--|
E ------------------------------------------------|


INTERLUDE:
Guitar 2 =-)
E------------------------------------------------------------------------|
B------------------------------------------------------------------------|
G--------0---------------------------------0-----------------------------|
D------6-----6-------4--6-6b-6-4-6-------6-----6-------6-------------2---|
A-4-4------------0-0----------------4-4--------------7---7-----4---4-----|
D--------------------------------------------------7---------4---4-------|

Guitar 1 =-)
e  -----------------|
B  -----------------|
G  6----6----6----6-|
D  6----6----6----6-| X2
A  4----4----0----4-|
D  x----x----x----4-|


VERSE:
e  -----------------|
B  -----------------|
G  6----6----6----6-|
D  6----6----6----6-|
A  4----4----0----4-|
D  x----x----x----4-|

e  -----------------|
B  -----------------|
G  6----6----6------|
D  6----6----6----2-|
A  4----4----0----2-|
D  x----x----x----2-|

e  -----------------|
B  -----------------|
G  6----6----6----6-|
D  6----6----6----6-|  X2
A  4----4----0----4-|
D  x----x----x----4-|


CHORUS 2:
Guitar 1
Chords
e  -----------------|
B  -----------------|
G  9----9-----------|
D  9----9----7----7-|  X2
A  7----6----7----7-|
D  x----x----7----7-|

Guitar 2
Chords
e  ------------|
B  ------------|
G  9----4----2-|
D  9----x----2-|
A  7----6----0-|
E  x----x------|

Strumming is here for this part
e ------------------------------------------------|
B ------------------------------------------------|
G 9-9-9-9--11-11-11-11--13-13-13-13--14-14-14-14--|
D x-x-x-x--x--x--x--x---x--x--x--x---x--x--x--x---|
A 7-7-7-7--9--9--9--9---11-11-11-11--12-12-12-12--|
E ------------------------------------------------|

Chords
e  ------------|
B  ------------|
G  9----4----2-|
D  9----x----2-|
A  7----6----0-|
E  x----x------|

e------------------------------------------------------|
b------------------------------------------------------|
g--13-13-13-13--14-14-14-14--11-11-11-11-8-8-8-8-------|
d--x--x--x--x---x--x--x--x---x--x--x--x--x-x-x-x-------|
a--11-11-11-11--12-12-12-12--9--9--9--9--6-6-6-6-------|
E------------------------------------------------------|


BRIDGE:
Guitar 1
__________________________________________________
e----------------------------------------|        |
b----------------------------------------|        |
g-6-6-6-6--8-8-8-8--9-9-9-9--11-11-11-11-|        |
d-x-x-x-x--x-x-x-x--x-x-x-x--x--x--x--x--|        |
a-4-4-4-4--6-6-6-6--7-7-7-7--9--9--9--9--|        |
D----------------------------------------|        |
                                                  |
e----------------------------------------|        |
b----------------------------------------|        |
g-6-6-6-6--8-8-8-8--9-9-9-9--11-11-11-11-|        |
d-x-x-x-x--x-x-x-x--x-x-x-x--x--x--x--x--|        |
a-4-4-4-4--6-6-6-6--7-7-7-7--9--9--9--9--|        |
D----------------------------------------|        | 
                                                  |
e----------------------------------------------|  |
b----------------------------------------------|  |
g-----------9-9-9-9--11-11-11-11--13-13-13-13--|  |
d--7-7-7-7--x-x-x-x--x--x--x--x---x--x--x--x---|  |
a--7-7-7-7--7-7-7-7--9--9--9--9---11-11-11-11--|  |
D--7-7-7-7-------------------------------------|  |
                                                  |
e----------------------------------------------|  |
b----------------------------------------------|  |
g-----------11-11-11-11--13-13-13-13--8-8-8-8--|  |
d--6-6-6-6--x--x--x--x---x--x--x--x---x-x-x-x--|  |
a--6-6-6-6--9--9--9--9---11-11-11-11--6-6-6-6--|  |
D--6-6-6-6-------------------------------------|  X2
__________________________________________________|


e----------------------------------------|
b----------------------------------------|
g-6-6-6-6--8-8-8-8--9-9-9-9--11-11-11-11-|
d-x-x-x-x--x-x-x-x--x-x-x-x--x--x--x--x--|
a-4-4-4-4--6-6-6-6--7-7-7-7--9--9--9--9--|
D----------------------------------------|

e------------------------------------------------------|
b------------------------------------------------------|
g-13-13-13-13-13-13-13-13--14-14-14-14-14-14-14-14-----|
d-x--x--x--x--x--x--x--x---x--x--x--x--x--x--x--x------|
a-11-11-11-11-11-11-11-11--12-12-12-12-12-12-12-12-----|
D------------------------------------------------------|

e-----------------------------------------------------|
b--------------------------16-16-16-16-16-16-16-16----|
g-16-16-16-16-16-16-16-16--x--x--x--x--x--x--x--x-----|
d-x--x--x--x--x--x--x--x---13-13-13-13-13-13-13-13----|
a-14-14-14-14-14-14-14-14-----------------------------|
D-----------------------------------------------------|

e----------------------------------------------------|
b-17-17-17-17-17-17-17-17-17-17-17-17-17-17-17-17----|
g-x--x--x--x--x--x--x--x--x--x--x--x--x--x--x--x-----|
d-14-14-14-14-14-14-14-14-14-14-14-14-14-14-14-14----|
a----------------------------------------------------|
D----------------------------------------------------|

CHORUSES
Suggest correction new What's this?
You can suggest a correction to this tab. Community and Mods will review your correction and vote to approve or reject it.
comments
We did not receive enough feedback on this tab! Please rate:
print report bad tab
1 2 3 4 5
3 comments total.
+1 reply
PatrickDoesABCs 603 wrote on April 19 2009, 05:58 am

well at least someone tabbed it out... i tabbed it out the same way (not exactly but a few changes here and there).. but i was scared if i posted it, people wouldnt know where to get the song
so i didnt... but good job 5/5

0 reply
erijasoro 108 wrote on April 30 2009, 06:55 pm

thx for commentin, why were u scared to post urs?????

0 reply
PatrickDoesABCs 603 wrote on June 19 2009, 05:42 am

i didnt post it cause i thought people wouldnt know where to find the acoustic version for the song and accually accept it

but i was going to do it for guitar-pro
you beat me to it... lol

guest
You may want to rate the tab now too:
select rating
Please do not post tabs as comments. Select "correction" instead!