Oops, an error
Loading. Please wait.

Hold The Door Tab

version 1
version 1

Whole song

Interactive

5,352 views 3 this week
4 commentsread comments
1 2 3 4 5
accurate
x 4
add to favorites
launch autoscroll
font size
0
reset
how to read this tab
guitar tuner
Autoscroll
slow
fast
+/-
esc
set tempo
stop
Help us to improve Ultimate-Guitar.com Take our survey!
×
Author
Difficulty
Tuning
novice
D A D G B E
Band: Armor for Sleep
song: Hold The Door
Album: Smile For Them
Tabbed by: art_fire2005@yahoo.com
My Myspace URL: www.myspace.com/art_fire2005
email me if any mistakes

This is my favorite song out of there new album "smile for them"
I'm very sure this tab is 99% correct.
(THIS SONG WAS TABBED BY EAR)

UPDATE!!!!!!!!(04-15-2008 7:37am)
ok...now im about 99.9% 
on my old tab i had a few mistakes

D-a-d-g-b-e

Intro: Guitar 1 (Ben)(0:35) (use small amount of Delay)
e------------------------------------------------------------------------|
b------------------------------------------------------------------------|
g--------0---------------------------------0-----------------------------|
d------6-----6-------4--6-6b-6-4-6-------6-----6-------6-------------2---|
a-4-4------------0-0----------------4-4--------------7---7-----4---4-----|
D--------------------------------------------------7---------4---4-------|

---Guitar 2(keyboard)(PJ)--- (00:00-01:10)


Chorus: Ben (1:10)
e----------------------------------------------------|
b----------------------------------------------------|
g-9-9-9-9-9-9-9-9------------------------------------|
d-9-9-9-9-9-9-9-9--9-9-9-9-9-9-9-9--7-7-7-7-7-7-7-7--|
a-7-7-7-7-7-7-7-7--6-6-6-6-6-6-6-6--7-7-7-7-7-7-7-7--|
D-----------------------------------7-7-7-7-7-7-7-7--|

e--------------------------------------------------|
b--------------------------------------------------|
g--9-9-9-9--11-11-11-11--13-13-13-13--14-14-14-14--|
d--x-x-x-x--x--x--x--x---x--x--x--x---x--x--x--x---|
a--7-7-7-7--9--9--9--9---11-11-11-11--12-12-12-12--|
D--------------------------------------------------|

Continued Chorus
e----------------------------------------------------|
b----------------------------------------------------|
g-9-9-9-9-9-9-9-9------------------------------------|
d-9-9-9-9-9-9-9-9--9-9-9-9-9-9-9-9--7-7-7-7-7-7-7-7--|
a-7-7-7-7-7-7-7-7--6-6-6-6-6-6-6-6--7-7-7-7-7-7-7-7--|
D-----------------------------------7-7-7-7-7-7-7-7--|

e------------------------------------------------------|
b-----------------------------------------16-16-16-16--|
g--13-13-13-13--14-14-14-14--16-16-16-16--x--x--x--x---|
d--x--x--x--x---x--x--x--x---x--x--x--x---13-13-13-13--|
a--11-11-11-11--12-12-12-12--14-14-14-14---------------|
D------------------------------------------------------|

Chorus: PJ (1:10)
e----------------------------------------------------|
b----------------------------------------------------|
g-9-9-9-9-9-9-9-9--4-4-4-4-4-4-4-4--2-2-2-2-2-2-2-2--|
d-9-9-9-9-9-9-9-9--x-x-x-x-x-x-x-x--2-2-2-2-2-2-2-2--|
a-7-7-7-7-7-7-7-7--6-6-6-6-6-6-6-6--0-0-0-0-0-0-0-0--|
D----------------------------------------------------|

e--------------------------------------------------|
b--------------------------------------------------|
g--9-9-9-9--11-11-11-11--13-13-13-13--14-14-14-14--|
d--x-x-x-x--x--x--x--x---x--x--x--x---x--x--x--x---|
a--7-7-7-7--9--9--9--9---11-11-11-11--12-12-12-12--|
D--------------------------------------------------|

Continued Chorus
e----------------------------------------------------|
b----------------------------------------------------|
g-9-9-9-9-9-9-9-9--4-4-4-4-4-4-4-4--2-2-2-2-2-2-2-2--|
d-9-9-9-9-9-9-9-9--x-x-x-x-x-x-x-x--2-2-2-2-2-2-2-2--|
a-7-7-7-7-7-7-7-7--6-6-6-6-6-6-6-6--0-0-0-0-0-0-0-0--|
D----------------------------------------------------|

e------------------------------------------------------|
b----------------------------12-12-12-12---------------|
g--13-13-13-13--14-14-14-14--x--x--x--x--8-8-8-8-------|
d--x--x--x--x---x--x--x--x---9--9--9--9--x-x-x-x-------|
a--11-11-11-11--12-12-12-12--------------6-6-6-6-------|
D------------------------------------------------------|

Intro (01:33) x1


Chorus (02:08) x2


Bridge (2:55-03:18)
e----------------------------------------|
b----------------------------------------|
g-6-6-6-6--8-8-8-8--9-9-9-9--11-11-11-11-|
d-x-x-x-x--x-x-x-x--x-x-x-x--x--x--x--x--|
a-4-4-4-4--6-6-6-6--7-7-7-7--9--9--9--9--|
D----------------------------------------|

e----------------------------------------|
b----------------------------------------|
g-6-6-6-6--8-8-8-8--9-9-9-9--11-11-11-11-|
d-x-x-x-x--x-x-x-x--x-x-x-x--x--x--x--x--|
a-4-4-4-4--6-6-6-6--7-7-7-7--9--9--9--9--|
D----------------------------------------|

Cont.
e----------------------------------------------|
b----------------------------------------------|
g-----------9-9-9-9--11-11-11-11--13-13-13-13--|
d--7-7-7-7--x-x-x-x--x--x--x--x---x--x--x--x---|
a--7-7-7-7--7-7-7-7--9--9--9--9---11-11-11-11--|
D--7-7-7-7-------------------------------------|

e----------------------------------------------|
b----------------------------------------------|
g-----------11-11-11-11--13-13-13-13--8-8-8-8--|
d--6-6-6-6--x--x--x--x---x--x--x--x---x-x-x-x--|
a--6-6-6-6--9--9--9--9---11-11-11-11--6-6-6-6--|
D--6-6-6-6-------------------------------------|

Breakdown (03:18-03:30)
e----------------------------------------|
b----------------------------------------|
g-6-6-6-6--8-8-8-8--9-9-9-9--11-11-11-11-|
d-x-x-x-x--x-x-x-x--x-x-x-x--x--x--x--x--|
a-4-4-4-4--6-6-6-6--7-7-7-7--9--9--9--9--|
D----------------------------------------|

e------------------------------------------------------|
b------------------------------------------------------|
g-13-13-13-13-13-13-13-13--14-14-14-14-14-14-14-14-----|
d-x--x--x--x--x--x--x--x---x--x--x--x--x--x--x--x------|
a-11-11-11-11-11-11-11-11--12-12-12-12-12-12-12-12-----|
D------------------------------------------------------|

Cont.
e-----------------------------------------------------|
b--------------------------16-16-16-16-16-16-16-16----|
g-16-16-16-16-16-16-16-16--x--x--x--x--x--x--x--x-----|
d-x--x--x--x--x--x--x--x---13-13-13-13-13-13-13-13----|
a-14-14-14-14-14-14-14-14-----------------------------|
D-----------------------------------------------------|

e----------------------------------------------------|
b-17-17-17-17-17-17-17-17-17-17-17-17-17-17-17-17----|
g-x--x--x--x--x--x--x--x--x--x--x--x--x--x--x--x-----|
d-14-14-14-14-14-14-14-14-14-14-14-14-14-14-14-14----|
a----------------------------------------------------|
D----------------------------------------------------|

----REST----(03:30-03:47)


Guitar Fill 1 Ben (03:47-03:53)
e----------------------------------------------------------------------|
b----------------------------------------------------------------------|
g----------------------------------------------------------------------|
d----------------------------------7-7-7-7-7-7-7-7-7-7-7-7-7-7-7-7-----|
a-7-7-7-7-7-7-7-7-7-7-7-7-7-7-7-7--7-7-7-7-7-7-7-7-7-7-7-7-7-7-7-7-----|
D-7-7-7-7-7-7-7-7-7-7-7-7-7-7-7-7--7-7-7-7-7-7-7-7-7-7-7-7-7-7-7-7-----|
pm................................

Guitar Fill 2 PJ (03:50-03:53)
e-----------------------------------------|
b-----------------------------------------|
g-9-9-9-9-8-8-8-8-6-6-6-6-4-4-4-4---------|
d-x-x-x-x-x-x-x-x-x-x-x-x-x-x-x-x---------|
a-7-7-7-7-6-6-6-6-4-4-4-4-2-2-2-2---------|
D-----------------------------------------|

Chorus (03:53-04:40) x2

Outro (04:40-04:46)
e-------------------------------------------------|
b-------------------------------------------------|
g-7-7-7-7--11-11-11-11--13-13-13-13--14-14-14-14--|
d-x-x-x-x--x--x--x--x---x--x--x--x---x--x--x--x---|
a-9-9-9-9--9--9--9--9---11-11-11-11--12-12-12-12--|
D-------------------------------------------------|

e------------------------------------------------------|
b-----------------------------------------16-16-16-16--|
g--13-13-13-13--14-14-14-14--16-16-16-16--x--x--x--x---|
d--x--x--x--x---x--x--x--x---x--x--x--x---13-13-13-13--|
a--11-11-11-11--12-12-12-12--14-14-14-14---------------|
D------------------------------------------------------|

End on
e-------|
g-------|
b-------|
d--2----|
a--2----|
D--2----|
Suggest correction
What's this?
You can suggest a correction to this tab. Community and Mods will review your correction and vote to approve or reject it.
comments
print report bad tab
4 comments total. Showing first comments.
0 reply
parkerguitars24 289 wrote on April 10 2008, 08:32 pm

Intro: Guitar 1 (Ben)(0:35) (use small amount of Delay)
e------------------------------------------------------------------------|
b------------------------------------------------------------------------|
g---------0--------------------------------0-----------------------------|
d------6-----6-------4--6-6b-4-6--------6-----6--------7------2-------2--|
a-4-4------------4-4---------------4-4---------------9---9-------4-------|
D--------------------------------------------------7----------------2----|

should be

Intro: Guitar 1 (Ben)(0:35) (use small amount of Delay)
e------------------------------------------------------------------------|
b------------------------------------------------------------------------|
g---------0--------------------------------0-----------------------------|
d------6-----6-------4--6-6b-4-6--------6-----6--------6-----------2------|
a-4-4------------0-0---------------4-4---------------7---7----4--4---------|
D--------------------------------------------------7---------4--4----------|

0 reply
art_fire2005 112 wrote on April 14 2008, 09:40 am

ya i knw i messsed up..i was trying to update it but cant figure out how to cause i cant find the link to it ....i have edited the whole tab again and i know its right for sure...sry about the mistake...

0 reply
ConsequenceYMA6 30 wrote on April 12 2010, 04:33 pm

e----------------------------------------------------------------------------|
b----------------------------------------------------------------------------|
g---------0-------------------------------------0--------------------------|
d------6-----6-------4--6-6b-4-6--------6-------6----------------2s--|
a-4-4------------0-0---------------4-4---------------7----------4-4---|
D--------------------------------------------------5-5---------------2----|
I think that's the intro

guest
You may want to rate the tab now too:
select rating
Please do not post tabs as comments. Select "correction" instead!