Oops, an error
Loading. Please wait.

Kind Of Perfect Tab

version 1
version 1

Whole song

Interactive

4,464 views 1 this week
no commentswrite comment
1 2 3 4 5
x 3
add to favorites
launch autoscroll
font size
0
reset
how to read this tab
guitar tuner
Autoscroll
slow
fast
+/-
esc
set tempo
stop
Help us to improve Ultimate-Guitar.com Take our survey!
×
Author
Difficulty
Tuning
advanced
D A D G B E
----------------------------------------------------------------------------
                    armor for sleep - kind of perfect
----------------------------------------------------------------------------
tabbed by:Nathan mistickokat
Tuning:Drop D(e,B,G,D,A,D)

Intro Guitar I
|--------5--------------5-----------------------------------|
|----5--------------5---------------------------------------|
|------6--------------6------/9----9--9-----9--9--------6---|
|-------------------------------------------------7--9------|
|-----------------------------------------------------------|
|-7--------------6------------------------------------------|

Guitar II(play this on both guitars for the verse)
|--------5--------------5-----------------------------------|
|----5--------------5---------------------------------------|
|------6--------------6------------2--------------2---------|
|--------------------------------2----2---------2----2------|
|----------------------------2h4--------4---2h4--------4----|
|-7--------------6----------0-------------0-----------------|

Chorus Guitar I
         Gb                     E
|----9----9----9----9-|----7----7----7----7-|
|-12---12---12---12---|-10---10---10---10---|
|---------------------|---------------------|
|---------------------|---------------------|
|---------------------|---------------------|
|---------------------|---------------------|

         D                      D
|---------------------|---------------------|
|-9-10-9-10-9-10-9-10-|-10---10---9-10-9-10-|
|---------------------|----9----9-----------|
|---------------------|---------------------|
|---------------------|---------------------|
|---------------------|---------------------|

(chords)guitar II
 Gb   E   D   D
|-0-|-0-|-0-|-0-|
|-0-|-0-|-3-|-3-|
|-6-|-4-|-2-|-2-| these are strummed.
|-4-|-2-|-0-|-0-|
|-4-|-2-|-0-|-0-|
|-4-|-2-|-0-|-0-|

Verse

Chorus

Bridge
  A  Ab   D   D
|-0-|-0-|-0-|-0-|
|-0-|-0-|-3-|-3-|
|-9-|-9-|-2-|-2-|
|-7-|-6-|-0-|-0-|
|-7-|-7-|-0-|-0-|
|-7-|-6-|-0-|-0-|

chorus 2
 Gb   E   D   D
|-0-|-0-|-0-|-0-|
|-0-|-0-|-0-|-0-|
|-11|-9-|-7-|-7-|
|-11|-9-|-7-|-7-|
|-9-|-7-|-5-|-5-|
|---|---|---|---|

Chorus...


Thats about it...Enjoy.
Suggest correction
Give kudos to tab author, rate the tab!
1 2 3 4 5
comments
print report bad tab
guest
You may want to rate the tab now too:
select rating
Wanna post a correction for this tab? Suggest correction