Oops, an error
Loading. Please wait.

Know What You Have Tab

785 views 1 this week
3 commentsread comments
1 2 3 4 5
excellent!
x 3
add to favorites
launch autoscroll
font size
0
reset
how to read this tab
guitar tuner
Tab Pro tools
  • play this tab
  • loop segment
  • change instrument
  • show fretboard
  • metronome
Autoscroll
slow
fast
+/-
esc
set tempo
stop
Contributor
Difficulty
intermediate
Tabbed by: Joshua Garcia (joshuag523@aol.com)

Tabs For the song: Know What You Have by Armor For Sleep
Please rate and let me know if you have any corrections. Thank you.

*Updated on 01/23/14 - Improvements made to entire tab, including proper and
accurate acoustic guitar.*


Tuning: Standard (E A D G B E)


Intro
Guitar 1 (Dub):
E||--------------------------------------------|
B||--16---16-16---16-16---16-16---16-16b17r16--|
G||--------------------------------------------| (repeats throughout the song)
D||--------------------------------------------|
A||--------------------------------------------|
E||--------------------------------------------|



Verse
Acoustic:
E||--6-----6-----6-----6-----6-6----------|---------------------------------------|
B||--7-----7-----7-----7-----7-7----------|--7-----7-----7-----7-----7-7----------|
G||--8-----8-----8-----8-----8-8----------|--8-----8-----8-----8-----8-8----------|
D||--x-x-x-x-x-x-x-x-x-x-x-x-x-x-x-x--x2--|--8-8-8-8-8-8-8-8-8-8-8-8-8-8-8-8--x2--| x3
A||--6-6-6-6-6-6-6-6-6-6-6-6-6-6-6-6------|--7-7-7-7-7-7-7-7-7-7-7-7-7-7-7-7------|
E||---------------------------------------|---------------------------------------|


Guitar 1:
E||-----------------------------------------------------------------------------------|
B||-----------------------------12~--------7--9------------------12~--------7--9------|
G||--8~--------11~--------8--9-------------------8~--------8--9-------------------8~--|
D||-----------------------------------------------------------------------------------|
A||-----------------------------------------------------------------------------------|
E||-----------------------------------------------------------------------------------|



Pre-Chorus
Guitar 1:
E||--11---11---------------|--11---11---------------|--11---11---------------|
B||----------9---9-12~--\--|----------9---9-12~--\--|----------9---9-12~--\--|
G||------------------------|------------------------|------------------------|
D||------------------------|------------------------|------------------------|
A||------------------------|------------------------|------------------------|
E||------------------------|------------------------|------------------------|


E||--16---16-14---14---------------------------------------------|
B||------------------16---1616161616161616-16b18r16-16-16b18r16--|
G||--------------------------------------------------------------|
D||--------------------------------------------------------------|
A||--------------------------------------------------------------|
E||--------------------------------------------------------------|



Chorus
Guitar 1:
E||--16---16-14---14----------|--------------------------------16---16-14---14-----|
B||------------------16-------|--16b17r16-16----------12---12------------------16--|
G||---------------------------|--------------13-13-13------------------------------|
D||-----------------------x3--|----------------------------------------------------|
A||---------------------------|----------------------------------------------------|
E||---------------------------|----------------------------------------------------|


E||--16---16-14---14----------|--16---16-14~--\--|
B||------------------16-------|------------------|
G||---------------------------|------------------|
D||-----------------------x3--|------------------|
A||---------------------------|------------------|
E||---------------------------|------------------|


Acoustic:
E||--6666----6666----66-------------------------------------------------------------------------|
B||--7777-xx-7777-xx-77-xx--7777----7777----77--------------------------------------------------|
G||--8888-xx-8888-xx-88-xx--8888----8888----88-----8888----8888----88----8888----8888----88-----|
D||-------------------------xxxx-xx-xxxx-xx-xx-xx--9999-xx-9999-xx-99-xx-9999-xx-9999-xx-99-xx--| x2
A||-------------------------6666-xx-6666-xx-66-xx--7777-xx-7777-xx-77-xx-7777-xx-7777-xx-77-xx--|
E||---------------------------------------------------------------------------------------------|



Solo
Guitar 1:
E||---------7---7-6~--------------------------------------------------------/14---14---------|
B||----------------------/7--7h9--7----------------------------------/9---9----------14~--\--|
G||--/8---8--------------------------8~-----4--4h6--4----------------------------------------|
D||----------------------------------------------------6~-----/14\---------------------------|
A||------------------------------------------------------------------------------------------|
E||------------------------------------------------------------------------------------------|



Verse
Acoustic:
E||--6-----6-----6-----6-----6-6----------|---------------------------------------|
B||--7-----7-----7-----7-----7-7----------|--7-----7-----7-----7-----7-7----------|
G||--8-----8-----8-----8-----8-8----------|--8-----8-----8-----8-----8-8----------|
D||--x-x-x-x-x-x-x-x-x-x-x-x-x-x-x-x--x2--|--8-8-8-8-8-8-8-8-8-8-8-8-8-8-8-8--x2--| x2
A||--6-6-6-6-6-6-6-6-6-6-6-6-6-6-6-6------|--7-7-7-7-7-7-7-7-7-7-7-7-7-7-7-7------|
E||---------------------------------------|---------------------------------------|


Guitar 1:
E||-----------------------|
B||-------12-----7--9-----|
G||-8--9---------------8--|
D||-----------------------|
A||-----------------------|
E||-----------------------|



Chorus
Guitar 1:
E||--16---16-14---14----------|--------------------------------16---16-14---14-----|
B||------------------16-------|--16b17r16-16----------12---12------------------16--|
G||---------------------------|--------------13-13-13------------------------------|
D||-----------------------x3--|----------------------------------------------------| x3
A||---------------------------|----------------------------------------------------|
E||---------------------------|----------------------------------------------------|


E||--16---16-14---14----------|--16---16-14~--\--|
B||------------------16-------|------------------|
G||---------------------------|------------------|
D||-----------------------x3--|------------------|
A||---------------------------|------------------|
E||---------------------------|------------------|


Acoustic:
E||--6666----6666----66-------------------------------------------------------------------------|
B||--7777-xx-7777-xx-77-xx--7777----7777----77--------------------------------------------------|
G||--8888-xx-8888-xx-88-xx--8888----8888----88-----8888----8888----88----8888----8888----88-----|
D||-------------------------xxxx-xx-xxxx-xx-xx-xx--9999-xx-9999-xx-99-xx-9999-xx-9999-xx-99-xx--| x4
A||-------------------------6666-xx-6666-xx-66-xx--7777-xx-7777-xx-77-xx-7777-xx-7777-xx-77-xx--|
E||---------------------------------------------------------------------------------------------|



Interlude
Acoustic:
E||--6~-----------------------------------|
B||--7~---------7~------------------------|
G||--8~---------8~---------8~---------8~--|
D||-------------x----------9~---------9~--|
A||-------------6~---------7~---------7~--|
E||---------------------------------------|



Bridge
Guitar 1:
E||---------------------------------------------------------------------------------------|
B||---------------------------------------------------------------------------------------|
G||---------------------------------------------------------------------------------------|
D||--6666666666666666-8888888888888888-9999999999999999-11111111111111111111111111111111--|
A||--xxxxxxxxxxxxxxxx-xxxxxxxxxxxxxxxx-xxxxxxxxxxxxxxxx-x-x-x-x-x-x-x-x-x-x-x-x-x-x-x-x---|
E||--4444444444444444-6666666666666666-7777777777777777-9-9-9-9-9-9-9-9-9-9-9-9-9-9-9-9---|


E||--------------------------------------------------------------------------------------|
B||--------------------------------------------------------------------------------------|
G||--8888888888888888-11111111111111111111111111111111-13131313131313131313131313131313--|
D||--xxxxxxxxxxxxxxxx-x-x-x-x-x-x-x-x-x-x-x-x-x-x-x-x--x-x-x-x-x-x-x-x-x-x-x-x-x-x-x-x---|
A||--6666666666666666-9-9-9-9-9-9-9-9-9-9-9-9-9-9-9-9--11111111111111111111111111111111--|
E||--------------------------------------------------------------------------------------|


E||------------------------------------|
B||------------------------------------|
G||--15151515151515151515151515151515--|
D||--x-x-x-x-x-x-x-x-x-x-x-x-x-x-x-x---|
A||--13131313131313131313131313131313--|
E||------------------------------------|



Chorus/Outro
Guitar 1:
E||--16---16-14---14----------|--------------------------------16---16-14---14-----|
B||------------------16-------|--16b17r16-16----------12---12------------------16--|
G||---------------------------|--------------13-13-13------------------------------|
D||-----------------------x3--|----------------------------------------------------| x3
A||---------------------------|----------------------------------------------------|
E||---------------------------|----------------------------------------------------|


E||--16---16-14---14----------|--16---16-14~--\--|
B||------------------16-------|------------------|
G||---------------------------|------------------|
D||-----------------------x3--|------------------|
A||---------------------------|------------------|
E||---------------------------|------------------|


Acoustic:
E||--6666----6666----66-------------------------------------------------------------------------|
B||--7777-xx-7777-xx-77-xx--7777----7777----77--------------------------------------------------|
G||--8888-xx-8888-xx-88-xx--8888----8888----88-----8888----8888----88----8888----8888----88-----|
D||-------------------------xxxx-xx-xxxx-xx-xx-xx--9999-xx-9999-xx-99-xx-9999-xx-9999-xx-99-xx--| x4
A||-------------------------6666-xx-6666-xx-66-xx--7777-xx-7777-xx-77-xx-7777-xx-7777-xx-77-xx--|
E||---------------------------------------------------------------------------------------------|


E||--6~--|
B||--7~--|
G||--8~--|
D||------|
A||------|
E||------|




Tablature Legend
----------------
 h   hammer-on
 p   pull-off
 b   bend
 pb  pre-bend
 r   release bend
 ~   hold / vibrato
 .   palm mute
 /   slide up
 \   slide down
 *   pinch harmonic
 '   natural harmonic
 x   mute note
 T   tap
comments
We did not receive enough feedback on this tab! Please rate:
print report bad tab
1 2 3 4 5
3 comments total.
0 reply
PatrickDoesABCs wrote on September 8 2009, 09:43 pm

wow the leads are really good, but the acoustic part isnt enough, but hay... you clearly stated that you dont own an acoustic
5*

0 reply
Joshua Garcia wrote on January 24 2014, 11:21 am

Hey dude, I'm not sure if you're still around but I feel you should know that this entire tab has been updated and includes an accurate acoustic guitar.

My ear for these things got better over the years. :)

0 reply
Cyburcide wrote on September 13 2009, 11:53 pm

Fantastic once again. Hopefully AFS haven't broken up, but if so your tabs allow us to play their music forever.

I want to post or [tab]
guest
You may want to rate the tab now too:
select rating
Please do not post tabs as comments. Select "correction" instead!