Oops, an error
Loading. Please wait.

More You Talk The Less I Hear Bass Tab

388 views 1 this week
no commentswrite comment
1 2 3 4 5
excellent!
x 1
add to favorites
launch autoscroll
font size
0
reset
guitar tuner
Tab Pro tools
  • play this tab
  • loop segment
  • change instrument
  • show fretboard
  • metronome
Autoscroll
slow
fast
+/-
esc
set tempo
stop
Difficulty
novice
The more you talk the less I hear-Armor For Sleep (bass tab)

Intro:
G -------------------------------------------------------------------------------|
D - - - - - - - - - - - - - - - - - - - -- --------------------------------------|
A- - - - - - - -0- 12- -0 - - 8 - - 8 - - 8 - - 8p7p0 - - - - -X3- 7- -0 - - 8 - |
E-10/12 - - - - - - - - - - - - - - - - - -  - - - - - - - - - - - - - - - - - - |

-----------------------------------------------------|
-----------------------------------------------------|
0 - 10 – 8 – 0 – 7h8 0 - - 8 - - 0 - 10 – 8 – 0 – 7h8|
- - - - ---------------------------------------------|

( come in w/ drums)
Verse X2
G ---------------------------------------------------------------------------|
D ---------------------------------------------------------------------------|
A----------------------------------------------------------------------------|
E – 0 – - -9- 9/12- - - - 0- 7 – 7/5-  - -- - -0 – 5-5/7 – - - -- - -  1 – 3/5

Pre chorus
G ---------------------------------------------------|
D ---------------------------------------------------|
A ---------------------------------------------------|
E – 3-3-3-3-3/12- 12-12-12-12-1212121212-------------|

Chorus X2
G --------------------------------------------------|
D - - --------------------2-2-2 -  -  --------------|
A - - - - - - - - 3-3-3-3 -- - - -2-2-2-0-0-0 - -- -|
E - -1-1-11-1- - - - - - - - - - - - - - - - - - - -|

Preverse X2
G ------------------------------------------------------|
D-------------------------------------------------------|
A77-7-77-7-77-7-77-7/88-8-88-8\77-7-77-7----------------|
E - - --------------------------------------------------|

(intro)

(Verse)

(pre chorus)

(Chorus)

(Bridge)X2 A stranger’s up ahead…
G---------------------------------------------------------------|
D---------------------------------- ----------------------------|
A---------------------------------- - - - - - ------------------
E-8-8-88-8-88-88-88-88-0-0-00-0-0-00-X2- - -8/10/12 (play w/ drums)

Outro (w/ guitar) X2
G - --------------------------------- ----------------|
D 10101010101010101010-------------6-9-7-6-5-6-9-7-6-5|
A ------------------------------99999999 - - - - -----|
E - --  - - --  - - --  ------------------------------|


Breakdown  X2  I just need to see you now…
G -- - - - - - - - - - - - - - - - - - - -- - -  -|
D-------------------------------------------------|
A-99-9-99-99-99-7-77-7-77-7-77-7-77---------------|
E-------------------------------------------------|

(pre-verse)


This was my very first tab, most likely wrong for the most part of it. Well enjoy.

/=slide up
\=slide down
h=hammer on
p=pull off
comments
We did not receive enough feedback on this tab! Please rate:
print report bad tab
1 2 3 4 5
I want to post or [tab]
guest
You may want to rate the tab now too:
select rating
Please do not post tabs as comments. Select "correction" instead!