Oops, an error
Loading. Please wait.

More You Talk The Less I Hear Tab

version 2
version 2

Whole song

1,354 views 1 this week
no commentswrite comment
1 2 3 4 5
excellent!
x 3
add to favorites
launch autoscroll
font size
0
reset
how to read this tab
guitar tuner
Autoscroll
slow
fast
+/-
esc
set tempo
stop
Help us to improve Ultimate-Guitar.com Take our survey!
×
Hi, my name is Adam Lutz and i decieded to tab out this whole song, not just the intro. 
think its 98% right but if some parts aren't, sorry. I am only 14 so cut me some slack 
i think it good. Suggestions? Email me at alutz1717@aim.com.

1/30/09

/=slide up
\=slide down
p=pull off
H==hammer on
.=Palm Mute

Guitar one is lead
Guitar 2 is Rythm

Drop D tuning

Intro: Guitar 1 lead no guitar 2
  TWO TIMES ALL TOGETHER ( 0:00-0:22) 8 measrues
e |------------------------------------------------------------------------|
B |------------------------------------------------------------------------|
G |------------------------------------------------------------------------|
D |-------7p0--------------------------------------------------------------|
A |-5/7-0----0-8p0--8p0-8p0-7h8p7-0----7h8-0-8h10-0-10h12-0-7h8-0-5/7-5-0--|
D |------------------------------------------------------------------------|

   do this^ three times then................    this^


Verse 1 guitar one
(0:22-0:45) two times ( not exact number of notes but the right notes I'm sure)
Clean
e|-5-----5--5---------------5---5---5----3----3-3-------------------|
B|---------------8---8-8-------------------5---5-5------------------|
G|----7----7--7----7--7-7-----7----7--7-----------------------------|
D|------------------------------------------------------------------|
A|------------------------------------------------------------------|
D|------------------------------------------------------------------|

Pre Chorus: If the octive strumming confuses you, its 32 times up and down
Sorry if it doesn't look perfect. (0:45-0:51)
(What did i say?....)             (Why do you give a shit?)
Guitar 2
e|-------------------------------------------------------------------------|
B|-------------------------------------------------------------------------|
G|1010101010101010101010101010101010101010101010101010101010101010---------|
D|x x x x x x x x x x x x x x x x x x x x x x x x x x x x x x x x ---------|
A|8-8-8-8-8-8-8-8-8-8-8-8-8-8-8-8-8-8-8-8-8-8-8-8-8-8-8-8-8-8-8-8----------|
D|-------------------------------------------------------------------------|

Guitar one pre chorus comes in half way through. Up & down strumming pattern
(Why do you give a shit?) (0:48-0:51)

e|-------------------------------------------------------------------------|
B|--\10101010101010101010101010101010--------------------------------------|
G|---x x x x x x x x x x x x x x x x --------------------------------------|
D|--\7 7 7 7 7 7 7 7 7 7 7 7 7 7 7 7 --------------------------------------|
A|-------------------------------------------------------------------------|
D|-------------------------------------------------------------------------|

Chorus:(0:51-1:02) Those are tens and twelves NOT ones and two's
Both Guitars
TWO TIMES!!! :0 ha   (I'm running down highways....)

e|-------------------------------------------------------------------------|
B|-------------------------------------------------------------------------|
G|-------------------------------------------------------------------------|
D|1212--1010--10--1010-10101010--0-00--0-10--1010-10101010-----------------|
A|1212--1010--8---8-8--8-8-8-8---0-00--0-8---8-8--8-8-8-8------------------|
D|1212--1010--8---8-8--8-8-8-8---0-00--0-8---8-8--8-8-8-8------------------|

POst Chorus Guitar 2 rythm(1:03-1:13) ONLY ONCE FOR GUITAR 2


            I Just need to see you now
e|-------------------------------------------------------------------------|
B|-------------------------------------------------------------------------|
G|-------------------------------------------------------------------------|
D|-77-777-777-777-788-888-888-888-877-777-777-777-788-888-888-888-8--------|
A|-77-777-777-777-788-888-888-888-877-777-777-777-788-888-888-888-8--------|
D|-77-777-777-777-788-888-888-888-877-777-777-777-788-888-888-888-8--------|

Post chorus guitar 1 lead (1:03-1:13)  TWO TIMES FOR GUITAR 1

            I Just need to see you now
e|-------------------------------------------------------------------------|
B|-1010-101010-101010-101010-10--------------------------------------------|
G|-x-x--x-x-x--x-x-x--x-x-x--x--1010-101010-1099-9999----------------------|
D|-7-7--7-7-7--7-7-7--7-7-7--7--x-x--x-x-x--x-xx-xxxx----------------------|
A|------------------------------8-8--8-8-8--8-77-7777----------------------|
D|-------------------------------------------------------------------------|

Intro Once. Not twice like in the beggining
Verse 2 is the same as verse 1
Pre chorus guitar 2 is the same but guitar 1 does this instead

e|-------------------------------------------------------------------------|
B|-10101010101010101010101010101010/---------------------------------------|
G|-x-x-x-x-x-x-x-x-x-x-x-x-x-x-x-x-/5555555555555555-----------------------|
D|-7-7-7-7-7-7-7-7-7-7-7-7-7-7-7-7-/xxxxxxxxxxxxxxxx-----------------------|
A|----------------------------------3333333333333333-----------------------|
D|-------------------------------------------------------------------------|

Chorus is the same as i wrote before

Breakdown (2:18)
It's raining outside...  ( 4 times the first two are when there is rain in the back 
and the last two are not.)

e|-------------------------------------------------------------------------|
B|-------------------------------------------------------------------------|
G|-------------------------------------------------------------------------|
D|55555555--55555588888888--88888800000000-00000000000000--000000----------|
A|55555555--55555588888888--88888800000000-00000000000000--000000----------|
D|55555555--55555588888888--88888800000000-00000000000000--000000----------|
  ........  ..............  .............. ..............  ......

Bridge(3:04) I'll scream till I bleed...
TWO TIMES

e|-------------------------------------------------------------------------|
B|-------------------------------------------------------------------------|
G|-------------------------------------------------------------------------|
D|55555555--55555588888888--88888800000000-00000000000000--000000----------|
A|55555555--55555588888888--88888800000000-00000000000000--000000-----8b---|
D|55555555--55555588888888--88888800000000-00000000000000--000000----------|

after you play this twice hit this note maybe a bend if your feeling happy :) (the 8)

After the bend

Pre Chorus(3:26) guitar 1 guitar 2 is the same
e|-------------------------------------------------------------------------|
B|/10101010101010101010101010101010----------------------------------------|
G|/x-x-x-x-x-x-x-x-x-x-x-x-x-x-x-x-rest-Then same normal pre-chorus--------|
D|/7-7-7-7-7-7-7-7-7-7-7-7-7-7-7-7-----------------------------------------|
A|-------------------------------------------------------------------------|
D|-------------------------------------------------------------------------|


END ON:
e|-----------------------------------------|
B|-----------------------------------------|
G|9~~~~~~FeedBAck--------------------------|
D|x----------------------------------------|
A|7~~~~~~FeedBAck--------------------------|
D|-----------------------------------------|


Well, that's it. I hope you like it. please rate or email if you have suggestions or 
:)
Suggest correction
Give kudos to tab author, rate the tab!
1 2 3 4 5
comments
print report bad tab
guest
You may want to rate the tab now too:
select rating
Please do not post tabs as comments. Select "correction" instead!