Oops, an error
Loading. Please wait.

My Saving Grace Tab

2,314 views 1 this week
3 commentsread comments
1 2 3 4 5
x 4
add to favorites
launch autoscroll
font size
0
reset
how to read this tab
guitar tuner
Autoscroll
slow
fast
+/-
esc
set tempo
stop
Help us to improve Ultimate-Guitar.com Take our survey!
×
Author
Difficulty
intermediate
Tabbed by: Joshua Garcia (joshuag523@aol.com)

Tabs For the song: My Saving Grace by Armor For Sleep
Please rate and let me know if you have any corrections. Thank you.

This song is fairly easy, its basically just the same notes spread 
throughout the whole song. And, once again, since no one else has tabbed 
this song, I decided to be the first. It goes like this.

Tuning: Standard (E A D G B E)


Intro
Guitar 1:
E||------12-12-11b12r11---------------|------12-12-11b12r11---------------|
B||--9-9------------------------------|--9-9------------------------------|
G||------------------------9---8------|------------------------9---8---9--| x3
D||-----------------------------------|-----------------------------------|
A||-----------------------------------|-----------------------------------|
E||-----------------------------------|-----------------------------------|


Pre-Chorus
Guitar 1:
E||----------------------------------------------|---0-0-0-0-0-0---00---00----|
B||--12-12-12-9-9-9-12-12-12-9-9-9-12-12-9-9--x3-|---7-7-7-7-7-7---77---77----|
G||--9--9--9--9-9-9-9--9--9--9-9-9-9--9--9-9-----|---9-9-9-9-9-9---88---88----|
D||----------------------------------------------|----------------------------|
A||----------------------------------------------|----------------------------|
E||----------------------------------------------|----------------------------|


Chorus
Guitar 1:
E||-----12-12-11b12r11-----------------------|-----12-12-11b12r11-------------------------------|
B||-9-9----------------12--------------------|-9-9----------------12----------------------------|
G||-----------------------11--9-9-99-8-------|-----------------------11--99999-88--8-8-8-8b9r8--| x2
D||------------------------------------77-7--|--------------------------------------------------|
A||------------------------------------------|--------------------------------------------------|
E||------------------------------------------|--------------------------------------------------|


Guitar 2
E||-------------------------------------------------------------------------------|
B||-------------------------------------------------------------------------------|
G||-------------------6-6-66-6-666-666--------------------------------------------|
D||-2-2-22-2-222-222--6-6-66-6-666-666--7-7-77-7-777-777--6666666-----------------|
A||-2-2-22-2-222-222--4-4-44-4-444-444--7-7-77-7-777-777--6666666--6-6-6-6b7r6----|
E||-0-0-00-0-000-000--------------------5-5-55-5-555-555--4444444-----------------|


Bridge
Guitar 1:
E||------12-12-11b12r11------16-----16---14----14----------------------------|
B||--9-9-------------------12---1212---12--1212---12--16b17r16b17r16b17r16---|
G||--------------------------------------------------------------------------|
D||--------------------------------------------------------------------------|
A||--------------------------------------------------------------------------|
E||--------------------------------------------------------------------------|


E||---9------9/11---------|
B||-----12---------12-----|
G||-9-----------------11--|
D||-----------------------|
A||-----------------------|
E||-----------------------|


Guitar 2:
E||-----------------------|
B||----------7/9----------|
G||---------------9----8--|
D||-----------------------|
A||-----------------------|
E||-----------------------|


Verse
Guitar 1:
E||------12-12-11b12r11---------------|------12-12-11b12r11---------------|
B||--9-9------------------------------|--9-9------------------------------|
G||------------------------9---8------|------------------------9---8---9--| x2
D||-----------------------------------|-----------------------------------|
A||-----------------------------------|-----------------------------------|
E||-----------------------------------|-----------------------------------|


Pre-Chorus
Guitar 1:
E||------------------------------------------------|---0-0-0-0-0-0---00---00----|
B||-xx-12-12-12-9-9-9-12-12-12-9-9-9-12-12-9-9--x3-|---7-7-7-7-7-7---77---77----|
G||-xx-9--9--9--9-9-9-9--9--9--9-9-9-9--9--9-9-----|---9-9-9-9-9-9---88---88----|
D||-xx---------------------------------------------|----------------------------|
A||------------------------------------------------|----------------------------|
E||------------------------------------------------|----------------------------|


Chorus
Guitar 1:
E||-----12-12-11b12r11-----------------------|-----12-12-11b12r11-------------------------------|
B||-9-9----------------12--------------------|-9-9----------------12----------------------------|
G||-----------------------11--9-9-99-8-------|-----------------------11--99999-88--8-8-8-8b9r8--| x2
D||------------------------------------77-7--|--------------------------------------------------|
A||------------------------------------------|--------------------------------------------------|
E||------------------------------------------|--------------------------------------------------|


Breakdown:
Guitar 2:
E||--------------------------------------------------------|
B||--------------------------------------------------------|
G||--------------------------------------------------------|
D||-4-4--4-4-4-444-4--4-4-4-44-6-6--6-6-6-666-6--6-6-6-66--|
A||-4-4--4-4-4-444-4--4-4-4-44-6-6--6-6-6-666-6--6-6-6-66--|
E||-2-2--2-2-2-222-2--2-2-2-22-4-4--4-4-4-444-4--4-4-4-44--|


E||--------------------------------------------------------|
B||--------------------------------------------------------|
G||--------------------------------------------------------| x3
D||-7-7--7-7-7-777-7--7-7-7-77-9-9--9-9-9-999-9--9-9-9-99--|
A||-7-7--7-7-7-777-7--7-7-7-77-9-9--9-9-9-999-9--9-9-9-99--|
E||-5-5--5-5-5-555-5--5-5-5-55-7-7--7-7-7-777-7--7-7-7-77--|


Guitar 1:
E||--------------------------------------------------------------------------------------|
B||--7---7----7----7---7----7----9---9----9----9---9----9----7---7----7----7---7----7----|
G||----9----9---9----9----9---9----9----9---9----9----9---9----9----9---9----9----9---9--|
D||--------------------------------------------------------------------------------------|
A||--------------------------------------------------------------------------------------|
E||--------------------------------------------------------------------------------------|


E||-14-14-14---14-14-14---12-12-12---11-11-11---|
B||----------9----------9----------9------------|
G||---------------------------------------------| x2
D||---------------------------------------------|
A||---------------------------------------------|
E||---------------------------------------------|


Chorus
Guitar 1:
E||------------------------------------------|-----12-12-11b12r11-------------------------------|
B||------------------------------------------|-9-9----------------12----------------------------|
G||---------------------------9-9-99-8-------|-----------------------11--99999-88--8-8-8-8b9r8--|
D||------------------------------------77-7--|--------------------------------------------------|
A||------------------------------------------|--------------------------------------------------|
E||------------------------------------------|--------------------------------------------------|


E||-----12-12-11b12r11-----------------------|-----12-12-11b12r11-------------------------------|
B||-9-9----------------12--------------------|-9-9----------------12----------------------------|
G||-----------------------11--9-9-99-8-------|-----------------------11--99999-88--8-8-8-8b9r8--|
D||------------------------------------77-7--|--------------------------------------------------|
A||------------------------------------------|--------------------------------------------------|
E||------------------------------------------|--------------------------------------------------|


Outro
Guitar 1:
E||-----12-12-11b12r11-----------------------|-----12-12-11b12r11-------------------------------|
B||-9-9----------------12--------------------|-9-9----------------12----------------------------|
G||-----------------------11--9-9-99-8-------|-----------------------11--99999-88--8-8-8-8b9r8--| x2
D||------------------------------------77-7--|--------------------------------------------------|
A||------------------------------------------|--------------------------------------------------|
E||------------------------------------------|--------------------------------------------------|


Guitar 1/2:
E||-----|
B||-----|
G||-----|
D||--2--|
A||--2--|
E||--0--|



Tablature Legend
----------------
 h   hammer-on
 p   pull-off
 b   bend
 pb  pre-bend
 r   release bend
 ~   hold / vibrato
 .   palm mute
 /   slide up
 \   slide down
 *   pinch harmonic
 '   natural harmonic
 x   mute note
 T   tap
Suggest correction
comments
print report bad tab
3 comments total.
0 reply
Cyburcide 10 Jul 29, 2009 11:17 PM

Excellent work on the lead guitar, but where is the rhythm guitar for the chorus?

+1 reply
Joshua Garcia 5,031 Jul 30, 2009 12:09 AM

Well it's hard to hear, but I think it's like this:

E||-------------------------------------------------------|
B||-------------------------------------------------------------------------------|
G||-------------------6-6-66-6-666-666--------------------------------------------|
D||-2-2-22-2-222-222--6-6-66-6-666-666--7-7-77-7-777-777--6666666-----------------|
A||-2-2-22-2-222-222--4-4-44-4-444-444--7-7-77-7-777-777--6666666--6-6-6-6b7r6----|
E||-0-0-00-0-000-000--------------------5-5-55-5-555-555--4444444-----------------|

Not sure on the last part

0 reply
Cyburcide 10 Jul 31, 2009 12:01 AM

Thanks for the quick response! This was a great song that deserved the tab. Anyway you can post a version of Chemicals or maybe a more complete version of Very Invisible? Thanks again.

guest
You may want to rate the tab now too:
select rating
Wanna post a correction for this tab? Suggest correction