Oops, an error
Loading. Please wait.

My Town Bass Tab

504 views 1 this week
1 commentread comment
1 2 3 4 5
3 more votes to show rating
add to favorites
launch autoscroll
font size
0
reset
guitar tuner
Autoscroll
slow
fast
+/-
esc
set tempo
stop
Help us to improve Ultimate-Guitar.com Take our survey!
×
Tuning: D A D G

Intro
G|---|
D|---|
A|---|
D|1~-|

G|---------------------------------------------------------|
D|---------------------------------------------------------|
A|---------------------------------------------------------|
D|-\1-1-1-1-1-1-1-1-3-3-3-3-3-3-3-3-5-5-5-5-5-5-5-5-5-5-5-|

G|-------------------------------------|
D|-------------------------------------|
A|-1-1-1-1-1-1-1-1-1-0-0-0-0-0-0-0-0-0-|
D|-------------------------------------|

G|-------------------------------------------------------|
D|-------------------------------------------------------|
A|-------------------------------------------------------|
D|-1-1-1-1-1-1-1-1-3-3-3-3-3-3-3-3-5-5-5-5-5-5-5-5-5-5-5-|

G|-------------------------------------|
D|-------------------------------------|
A|-1-1-1-1-1-1-1-1-1-0-0-0-0-0-0-0-0-0-|
D|-------------------------------------|

======================================================

Verse x2
G|-------------------------------------------------------|
D|-------------------------------------------------------|
A|-------------------------------------------------------|
D|-1-1-1-1-1-1-1-1-3-3-3-3-3-3-3-3-5-5-5-5-5-5-5-5-5-5-5-|

G|-------------------------------------|
D|-------------------------------------|
A|-1-1-1-1-1-1-1-1-1-0-0-0-0-0-0-0-0-0-|
D|-------------------------------------|

======================================================

Chorus x4
G|-----------------------------|
G|-----------------------------|
A|-6-6-6-1-1-1-1-1-1-1---------|
D|---------------------3-3-3-1-|

======================================================

Verse x3 (First time through with the same beat as the intro)
G|-------------------------------------------------------|
D|-------------------------------------------------------|
A|-------------------------------------------------------|
D|-1-1-1-1-1-1-1-1-3-3-3-3-3-3-3-3-5-5-5-5-5-5-5-5-5-5-5-|

G|-------------------------------------|
D|-------------------------------------|
A|-1-1-1-1-1-1-1-1-1-0-0-0-0-0-0-0-0-0-|
D|-------------------------------------|

======================================================

Chorus x4
G|-----------------------------|
G|-----------------------------|
A|-6-6-6-1-1-1-1-1-1-1---------|
D|---------------------3-3-3-1-|

======================================================

Bridge
G|-----------------------------------------------------------|
D|-----------------------------------------------------------|
A|---------------------------10--------8--------10--------8--| x2 (play this part twice)
D|-1-1-1-1-r-3-3-3-3-r-88888-----88888----88888-----88888----|

G|----------------------------------------------------------------|
D|----------------------------------------------------------------|
A|---------------------------------------10--------8--------10----|
D|-1-1-1-1-1-1-1-1-3-3-3-3-3-3-3-3-88888-----88888----88888-----8-|

======================================================

Chorus x8
G|-----------------------------|
G|-----------------------------|
A|-6-6-6-1-1-1-1-1-1-1---------|
D|---------------------3-3-3-1-|

======================================================

End on
G|---|
D|---|
A|---|
D|-1-|

Not sure if this is all completely accurate but if not it sounds pretty close. Feel free to make
corrections...
Suggest correction
Give kudos to tab author, rate the tab!
1 2 3 4 5
comments
print report bad tab
1 comment total.
0 reply
bassplayer27 312 Sep 29, 2007 06:55 PM

For the chorus I'd go
-6666660----------------
--------555555-3333-0-1~

guest
You may want to rate the tab now too:
select rating
Wanna post a correction for this tab? Suggest correction