Oops, an error
Loading. Please wait.

My Town Tab

version 3
version 3

Whole song

3,288 views 1 this week
no commentswrite comment
1 2 3 4 5
please rate
add to favorites
launch autoscroll
font size
0
reset
how to read this tab
guitar tuner
Tab Pro tools
  • play this tab
  • loop segment
  • change instrument
  • show fretboard
  • metronome
×
Best way to learn
"My Town"
Autoscroll
slow
fast
+/-
esc
set tempo
stop
Contributor
Difficulty
Tuning
novice
D A D G B E
                           Lead Guitar(Dadgbe)
Intro
e-8-10--10----8-10--10----8-10---|
b-----11----11----11----11----11-|
g--------------------------------|
d--------------------------------| x3(x2 second time)
a--------------------------------|
D--------------------------------|

e-8-8-10-88-88-10-8-|
b-x-x--x-xx-xx--x-x-|
g-5-5--7-55-55--7-5-|
d-------------------| x2
a-------------------|
D-------------------|

Verse
e-10-8------------------------------------------------------|
b-----11--10b11r10--10-10b11r10-----------------------------|
g-----------------10-----------10-555777333333-555777333333-|
d---------------------------------xxxxxxxxxxxx-xxxxxxxxxxxx-|
a---------------------------------333555111111-333555111111-|
D-----------------------------------------------------------|

Chorus
e---------------|
b---------------|
g-----10----10--|
d-10-8--10-8--8-|
a---------------|
D---------------|

Bridge
e--------------------------------------------------------------------------|
b--------------------------------------------------------------------------|
g------3-33/5555/777------5-55/7777/888-----10-----10-----10-----10/1210---|
d-1111-x-xx-xxxx-xxx-3333-x-xx-xxxx-xxx-5555-x-5555-x-5555-x-5555-x--x-x---|
a-1111-1-11/3333/555-3333-3-33/5555/666-5555-8-5555-8-5555-8-5555-8/108----|
D-1111---------------3333---------------5555---5555---5555---5555----------|

End on
e-8~-10~-----|
b--------11~-|
g------------|
d------------|
a------------|
D------------|

                            Rhythm Guitar(Dadgbe)
Intro
e---------------------------------------------------------------|
b---------------------------------------------------------------|
g---------------------------------------------------------------|
d-1~-1-1-11-3-33-33-5-5-5-55-55-5-5-888-88-88-8-8-777-77-77-7-7-|
a-1~-1-1-11-3-33-33-5-5-5-55-55-5-5-888-88-88-8-8-777-77-77-7-7-|
D-1~-1-1-11-3-33-33-5-5-5-55-55-5-5-888-88-88-8-8-777-77-77-7-7-|

Verse
e-----------------------------------------------------------|
b-----------------------------------------------------------|
g---------------------------------555777333333-555777333333-|
d-1111111133333333555555555555555-xxxxxxxxxxxx-xxxxxxxxxxxx-|
a-1111111133333333555555555555555-333555111111-333555111111-|
D-1111111133333333555555555555555---------------------------|
   ....... .......  ... .. ....
Chorus
e------------------|
b------------------|
g------------------|
d-1115555533311111-
a-1115555533311111-
D-1115555533311111-

Bridge
e--------------------------------------------------------------------------|
b--------------------------------------------------------------------------|
g------3-33/5555/777------5-55/7777/888-----10-----10-----10-----10/1210---|
d-1111-x-xx-xxxx-xxx-3333-x-xx-xxxx-xxx-5555-x-5555-x-5555-x-5555-x--x-x---|
a-1111-1-11/3333/555-3333-3-33/5555/666-5555-8-5555-8-5555-8-5555-8/108----|
D-1111---------------3333---------------5555---5555---5555---5555----------|

Order(Lead):
Intro x2
Verse x2
Chorus x8
Intro x1
Verse x2
Chorus x8
Bridge x3
Chorus x8
Intro x7(first part only)
End x1

Order(Rhythm)
Intro x2
Verse x2
Chorus x4
Intro x1
Verse x2
Chorus x4
Bridge x3
Chorus x8

email ffafrox@aol.com or IM ffafrox for whatever you might want to say.
comments
We did not receive enough feedback on this tab! Please rate:
print report bad tab
1 2 3 4 5
I want to post or [tab]
guest
You may want to rate the tab now too:
select rating
Please do not post tabs as comments. Select "correction" instead!