Oops, an error
Loading. Please wait.

Phantoms Now Tab

975 views 1 this week
no commentswrite comment
1 2 3 4 5
please rate
add to favorites
launch autoscroll
font size
0
reset
how to read this tab
guitar tuner
Autoscroll
slow
fast
+/-
esc
set tempo
stop
Help us to improve Ultimate-Guitar.com Take our survey!
×
hello, my name is adam lutz and this is my second tab. i also tabbed out "the more you 
the less i hear" by this band so check it out. My email is alutz1717@aim.com By the way 
only 14 but im 100% sure on this one. Great Song

I WAS JUST WATCHING THE GRAMMY'S AND BLINK-182 ANNOUNCED THAT THEY ARE BACK TOGETHER!!!! 
IF YOU LIKE THEMM AWSOME!!!! but ok this is by armor for aleep so here you go

2/8/09

DROP D TUNING! :)

Guitar 1=lead pj
Guitar 2=rythm ben
b=bend
x=dead note
...=palm mute
H=hammer on
P=pull off
~~~=let ring


Verse Pt.1 Guitar one (tonight, at 12...)

                         Do this two times
e|-------------------------------------------------------------------------|
B|----5-55----5-55----5-55----5-55----5-55----5-55----5-55----5-55---------|
G|----7-77----7-77----6-66----6-66----4-44----4-44----6-66----6-66---------|
D|----7-77----7-77----7-77----7-77----7-77----7-77----7-77----7-77---------|
A|-------------------------------------------------------------------------|
D|0000----0000----0000----0000----0000----0000----0000----0000-------------|
  ....    ....    ....    ....    ....    ....    ....    ....


Verse Pt.2 Guitar one (tansparent will be....)
e|------------------------------|
B|------------------------------|
G|11----------------------------|
D|x-----------------------------| play this octive over and over
A|9-----------------------------| There are some effects but just bend
D|------------------------------| Every once in a while or when you want to

Verse Pt.2 Guitar two
                  Do this part four times
e|------------------------------------------------------------------------|
B|------------------------------------------------------------------------|
G|------------------------------------------------------------------------|
D|55-5555-55-555--44-4444-44-444------------------------------------------|
A|55-5555-55-555--44-4444-44-444------------------------------------------|
D|55-5555-55-555--44-4444-44-444------------------------------------------|

Pre Chorus (watch us change..................dead tonight)
Both Guitars:
e|----------------------------------------------------------|
B|----------------------------------------------------------|
G|----------------------------------------------------------|
D|0~~~~-4~~~~~--0~~~~~-4~~~-xx-xxxx-------------------------|
A|0~~~~-4~~~~~--0~~~~~-4~~~-xx-xxxx-------------------------|
D|0~~~~-4~~~~~--0~~~~~-4~~~-xx-xxxx-------------------------|

Chorus Guitar one TWO TIMES(You'll be a ghost....)
e|--------------------------------------------------------|
B|--------------------------------------------------------|
G|11------------11h12p11---11h12p11-----------------------|
D|x-32 times------------12---------12---two times---------|
A|9-------------------------------------------------------|
D|--------------------------------------------------------|

Chorus Guitar two TWO TIMES strumming pattern is now shown perfectly but its easy
e|------------------------------------------------------------------------|
B|------------------------------------------------------------------------|
G|------------------------------------------------------------------------|
D|5555-55-5555-4444-44-4444-9999-99-9999-7777-77-7777---------------------|
A|5555-55-5555-4444-44-4444-9999-99-9999-7777-77-7777---------------------|
D|5555-55-5555-4444-44-4444-9999-99-9999-7777-77-7777---------------------|

Verse part two
Prechorus chorus
then this bridge
Guitar one: EIGHT TIMES BEND ON LAST TIME
e|----------------------------------------------|
B|----------------------------------------------|
G|9997771111-1111-11111111------11b-------------|
D|xxxxxxx-x--x-x--x-x-x-x-------x---------------|
A|7775559-9--9-9--9-9-9-9-------9b--------------|
D|----------------------------------------------|

Bridge guitar 2 TWO TOTAL TIMES follow the same struming pattern as the other guitar 
is right above this, here are the cords
e|-----------------------------------------------------------------------|
B|-----------------------------------------------------------------------|
G|-----------------------------------------------------------------------|
D|99999999-99-9999-----------55555555-55-5555----------------------------|
A|99999999-99-9999-two times-55555555-55-5555--two times--------55-55-55-|
D|99999999-99-9999-----------55555555-55-5555-------------------55-55-55-|
                                                                .. .. ..

Break down is guitar one and its the last part of the chorus with the pull off and 
ons. do that four times then chorus
END ON
e|--------|
B|--------|
G|--------|
D|5~~~~~--|
A|5~~~~~--|
D|5~~~~~--|

Thats it thank you and please rate! go armor for sleep
Suggest correction
Give kudos to tab author, rate the tab!
1 2 3 4 5
comments
print report bad tab
guest
You may want to rate the tab now too:
select rating
Wanna post a correction for this tab? Suggest correction