Oops, an error
Loading. Please wait.

Remember To Feel Real Bass Tab

version 1
version 1

Whole song

1,593 views 1 this week
1 commentread comment
1 2 3 4 5
1 last vote to show rating
add to favorites
launch autoscroll
font size
0
reset
guitar tuner
Autoscroll
slow
fast
+/-
esc
set tempo
stop
Help us to improve Ultimate-Guitar.com Take our survey!
×
Author
Tuning
D A D G B E
Tabbed By : Daniel Lelis
e-mail: e-seal@cox.net

Tuning: Drop D
Intro x2(10 are tens not ones and zeros)
G|-----------------------------|
D|-----------------------------|
A|-----------------------------|
D|-222222-0-000000-2/101010----|

Verse x4
G|----------------------------------|
D|----------------------------------|
A|------------------333333333333333-|
D|-2222222-000000-2-----------------|

Pre-Chorus x2 (10 are tens) (Play bracketed notes first time only)
G|-------------------------------------------|
D|-------------------------------------------|
A|-------------------------------------------|
D|-222222-1010101010101010-[555555-44444444]-|

Chorus x2
G|--------------------------------------------------------------------|
D|--------------------------------------------------------------------|
A|-3333333333333333------------------3333333333333333-----------------|
D|------------------2222222222222222------------------222444555777999-|

Post-Chorus
G|-------------------------------------------------------|
D|-------------------------------------------------------|
A|-------------------------------------------------------|
D|-2222-/10-10-10-10-10--2222-0-0000000-2/10-10-10-10-10-|

Verse x2
G|----------------------------------|
D|----------------------------------|
A|------------------333333333333333-|
D|-2222222-000000-2-----------------|

Pre-Chorus x2 (10 are tens) (Play bracketed notes first time only)
G|-------------------------------------------|
D|-------------------------------------------|
A|-------------------------------------------|
D|-222222-1010101010101010-[555555-44444444]-|

Chorus x2
G|--------------------------------------------------------------------|
D|--------------------------------------------------------------------|
A|-3333333333333333------------------3333333333333333-----------------|
D|------------------2222222222222222------------------222444555777999-|

Bridge
G|---------------------------------------------------------------|
D|---------------------------------------------------------------|
A|-------3--5\-------------------3--5\------------------3~----3~-|
D|-2~------5--2~----2~----2~-------5--2~----2~----2~-------------|

Chorus x2
G|--------------------------------------------------------------------|
D|--------------------------------------------------------------------|
A|-3333333333333333------------------3333333333333333-----------------|
D|------------------2222222222222222------------------222444555777999-|

Outro
G|-----------------------------------------------------|
D|-----------------------------------------------------|
A|-----------------------------------------------------|
D|-2222-------2222-------2-4-5-7-9-2-4-5-7-9-22--------|

I'm sure maybe about 95% of this tab is correct. I'm not entirely sure about the last 
notes of the Chorus. So if its correct or ou know the correct notes, please tell me and 
fix and it and credit you for it.

============================================================================

| /  slide up
| \  slide down
| h  hammer-on
| p  pull-off
| ~  vibrato
| +  harmonic
| x  Mute note
Suggest correction
Give kudos to tab author, rate the tab!
1 2 3 4 5
comments
print report bad tab
1 comment total.
0 reply
xJamesDean 16 Dec 10, 2015 07:14 AM

Rock on man.

guest
You may want to rate the tab now too:
select rating
Wanna post a correction for this tab? Suggest correction