Oops, an error
Loading. Please wait.

Remember To Feel Real Tab

version 1
version 1

Whole song

12,929 views 6 this week
6 commentsread comments
1 2 3 4 5
accurate
x 18
add to favorites
launch autoscroll
font size
0
reset
how to read this tab
guitar tuner
Tab Pro tools
  • play this tab
  • loop segment
  • change instrument
  • show fretboard
  • metronome
×
Best way to learn
"Remember To Feel Real"
Autoscroll
slow
fast
+/-
esc
set tempo
stop
Title: Remember To Feel Real
Artist: Armor For Sleep
Album: What To Do When You Are Dead

Copyright © Equal Vision Records 2005
Version 1.0 - 02/04/2005

Tabbed by: Chris Frazier (cdf0103@mail.ecu.edu)

This is the third in what I hope will become a series of tabs
from Armor For Sleep's sophomore album "What To Do When You Are
Dead". I hope you enjoy them and learn something. This is one
of my favorite tracks. It reminds me a lot of the style of
The Used. Have fun learning this one. If you have any
questions, comments, or additions PLEASE e-mail them to me
at cdf0103@mail.ecu.edu and I'll add/change them if they make
sense and of course give you full credit.

.  - palm mute
/  - slide up and down to
b  - Bend
() - Natural harmonics
*  - Pinch harmonics
h  - Hammer
p  - Pull off
"  - Tremolo Picking
x  - Mute

Tuning:(D A D G B E)

Intro
E|---------------0--0--0--0-0--------------------------------------------------||
B|---------------0--0--0--0-0-----------12b--12b--12b--12b-12b-12b-12b-12b-12/-|| 
G|---------0-0-0-7--7--7--7-7--------------------------------------------------|| 
D|---2-2-2-------7--7--7--7-7--10-10-10----------------------------------------|| 
A|---2-2-2-------5--5--5--5-5--10-10-10----------------------------------------|| 
D|---2-2-2---------------------10-10-10----------------------------------------||
         .         .  .  .. .         .

Start bend at first 12 and continue
up till third 12. On fourth, start 
to relax the bend till the last 12 
then slide down toward 1           
                                   
Verse (Left :22)
E|---7h8p7-----------10--10----------||
G|---------8--10p8-8--------8-10p8-8-||
D|-----------------------------------||
A|-----------------------------------||
D|-----------------------------------||

Pre-Chorus (Left)
E|---------------------------------------------------------------------------------------||
B|---------------------------------------------------------------------------------------||
G|-------------5--5-5-5---------------------------------5--5-5-5-------------------------||
D|---2--2-2-x--5--5-5-5-x-5--5-5-x-4--4-4--4--2--2-2-x--5--5-5-5-x-0-0--0-0--0-0-0-0-----||
A|---2--2-2-x--3--3-3-3-x-5--5-5-x-4--4-4--4--2--2-2-x--3--3-3-3-x-0-0--0-0--0-0-0-0-----||
D|---2--2-2-x-----------x-5--5-5-x-4--4-4--4--2--2-2-x-----------x-0-0--0-0--0-0-0-0-12/-||
                                                                   . .  . .  . . . .

Pre-Chorus (Right)
E|-----------------7--------------||-----------------------||
B|---5/7--7-7--7h8---10-10-10p8-8-||-----------------------|| Play first part 3 times
G|--------------------------------||-----------------------|| then play second part
D|--------------------------------||-0-0--0-0--0-0-0-0-----|| along with left guitar
A|--------------------------------||-0-0--0-0--0-0-0-0-----||
D|--------------------------------||-0-0--0-0--0-0-0-0-12/-||
                                     . .  . .  . . . .

Chorus (Left)
E|---------------------------------------------------------------------||
B|---------8"--------7"--------3"--------------------------------------|| 
G|---5-5-5---------------5-5-5-----------11-11-11/12-12-12/7-7-7/9-9-9-||
D|---5-5-5-----2-2-2-----5-5-5-----2-2-2-x--x--x-/x--x--x-/x-x-x/x-x-x-||
A|---3-3-3-----2-2-2-----3-3-3-----2-2-2-9--9--9-/10-10-10/5-5-5/7-7-7-||
D|-------------2-2-2---------------2-2-2-------------------------------||

Chorus (Right)
E|---------------------------------------------------------------------||
B|---------8"--------7"--------5"--------------------------------------|| 
G|---5-5-5---------------5-5-5-----------11-11-11/12-12-12/7-7-7/9-9-9-||
D|---5-5-5-----2-2-2-----5-5-5-----2-2-2-x--x--x-/x--x--x-/x-x-x/x-x-x-||
A|---3-3-3-----2-2-2-----3-3-3-----2-2-2-9--9--9-/10-10-10/5-5-5/7-7-7-||
D|-------------2-2-2---------------2-2-2-------------------------------||

Post-Chorus (Left)
E|---------------------------------------------------------------------------------||
B|------------------------------------------12b--12b--12b--12b-12b-12b-12b-12b-12/-||
G|----------12-12-12---------------------------------------------------------------||
D|---2-2-0--x--x--x----------------10-10-10----------------------------------------||
A|---2-2-0--10-10-10-9--9--9--9-9--10-10-10----------------------------------------||
D|---2-2-0--0--0--0--0--0--0--0-0--10-10-10----------------------------------------||
     . . .  

Post-Chorus (Right)
E|-----------------------------------------------------------------------------------||
B|--------------------------------------------12b--12b--12b--12b-12b-12b-12b-12b-12/-|| 
G|----------12-12-12-----------------------------------------------------------------|| 
D|---2-2-0--x--x--x------------------10-10-10----------------------------------------||
A|---2-2-0--10-10-10-(9--9--9--9-9)--10-10-10----------------------------------------||
D|---2-2-0--0--0--0--(0--0--0--0-0)--10-10-10----------------------------------------||
     . . .  
Don't play what's in the  
parenthesis the first time

Breakdown (Rythm)
E|---------------------------||
B|------------3---------3--5-||
G|---------------------------|| Don't play what's in the
D|---(2)--4h5-----4--5-------|| parenthesis AFTER the 
A|---(2)---------------------|| first time
D|----2----------------------||

Breakdown (Lead)
E|-----------||---7p0---5p0---3p0---2p0---3p0----7p0---5p0---3p0---2p0---3p0---|
B|---/5----3-||-------3-----3-----3-----3-----3------3-----3-----3-----3-----3-|
G|-----------||----------------------------------------------------------------|
D|-----------||----------------------------------------------------------------|
A|-----------||----------------------------------------------------------------|
D|-----------||----------------------------------------------------------------|

E|--------------------------------------------------|| First Part x1 
B|-----------12b--12b--12b--12b-12b-12b-12b-12b-12/-|| Second Part x3
G|--------------------------------------------------|| First Part x2 
D|--10-10-10----------------------------------------|| Second Part x3
A|--10-10-10----------------------------------------|| Third Part x2 
D|--10-10-10----------------------------------------||               


Outro
E|-----------------------------------||---------||
B|----------9-9-9-11-11-11-7-7-7-8-8-||---------||
G|----------x-x-x-x--x--x--x-x-x-x-x-||---------||
D|---0-2-2--7-7-7-9--9--9--4-4-4-5-5-||--0-2-2/-||
A|---0-2-2---------------------------||--0-2-2/-||
D|---0-2-2---------------------------||--0-2-2/-||
comments
print report bad tab
6 comments total. Showing first comments.
0 reply
Chris814 wrote on July 13 2006, 01:18 am

Great effort, but you fell short kid.

0 reply
Nickleback1192 wrote on July 21 2006, 10:39 am

Good tab (not great but Good)

0 reply
screamokid wrote on August 31 2006, 09:05 pm

good effort 5 stars

I want to post or [tab]
guest
You may want to rate the tab now too:
select rating
Please do not post tabs as comments. Select "correction" instead!