Oops, an error
Loading. Please wait.

Remember To Feel Real Tab

version 2
version 2

Whole song

1,936 views 1 this week
1 commentread comment
1 2 3 4 5
1 last vote to show rating
add to favorites
launch autoscroll
font size
0
reset
how to read this tab
guitar tuner
Autoscroll
slow
fast
+/-
esc
set tempo
stop
Help us to improve Ultimate-Guitar.com Take our survey!
×
Author
Difficulty
Tuning
intermediate
D A D G B E
At some points in this song it is difficult for me to differentiate between the two 
guitar parts, in which case I just play what sounds best to me (usually a mix of both parts 
is my guess.)



-----------------------------------------------------------------------------
                             Remember To Feel Real - Armor For Sleep
-----------------------------------------------------------------------------
Tabbed by:  Mark Peacock
Email:  mconnorpeacock@gmail.com

Tuning:  Drop D

Intro (both guitars)
  (Em)        (D)          (C)
E|----------------------------------------------------|
B|-----------------------------12^-12^-12^-12-12-12---|
G|-------5-5p0-7-7--7-7-7-----------------------------| x2
d|-2-2-2-------4-4--4-4-4---10------------------------|
A|-2-2-2-------5-5--5-5-5---10------------------------|
D|-2-2-2-------0-0--0-0-0---10------------------------|
               .    .



Verse 1 Can't tell if there is even guitar in the first part but I'll give you the 
chords according to the bass.  May want to palm mute it.

First Part:
  (Em)             (D)           (C)
E|----------------------------------------------------------------|
B|----------------------------------------------------------------|
G|--------------------------------5-5-5-5-5-5-5-5--5-5-5-5-5-5-5--| x8 or so
d|-2-2-2-2-2-2-2-2--0-0-0-0-0-0-0-5-5-5-5-5-5-5-5--5-5-5-5-5-5-5--|
A|-2-2-2-2-2-2-2-2--0-0-0-0-0-0-0-3-3-3-3-3-3-3-3--3-3-3-3-3-3-3--|
D|-2-2-2-2-2-2-2-2--0-0-0-0-0-0-0---------------------------------|


Second Part (w/delay):
E|-------------------------------------|
B|-12br-------------15-15--------------|
G|------12h14p12-12-------12h14p12-12--|  x4
d|-------------------------------------|
A|-------------------------------------|
D|-------------------------------------|


Prechorus or whatever:

Guitar 1:
  (Em)     (C)           (G)     (G/F#)
E|---------------------------------------------|
B|---------------------------------------------|
G|---------------------------------------------|
d|-2--2-2--/10--10-10-10--3--3-3--2--2-2--2-2--|
A|-2--2-2--/10--10-10-10--3--3-3--3--3-3--3-3--|
D|-2--2-2--/10--10-10-10--3--3-3--2--2-2--2-2--|

  (Em)     (C)           (G)     (G/F#)
E|---------------------------------------------|
B|---------------------------------------------|
G|---------------------------------------------|
d|-2--2-2-/10--10-10-10--xx--xx--xxxxxxxx------|
A|-2--2-2-/10--10-10-10--xx--xx--xxxxxxxx------|
D|-2--2-2-/10--10-10-10--xx--xx--xxxxxxxx------|

Guitar 2:
E|-----0-----0-------0-------0-----0----|
B|-5/7---7/8---10/12---12\10---8\7---7--|
G|--------------------------------------|  x4 or so
d|--------------------------------------|
A|--------------------------------------|
D|--------------------------------------|


Chorus (I'm gonna tab it out as separate parts but I usually play them together)

Guitar 1:

  (C)                             (Em)
E|------------------------------------------------------------------|
B|-------8-8-8-8-8-8-8-8-8-8-8-8-8-------7-7-7-7-7-7-7-7-7-7-7-7-7--|
G|-5-5-5------------------------------------------------------------|
d|-5-5-5---------------------------2-2-2----------------------------|
A|-3-3-3---------------------------2-2-2----------------------------|
D|---------------------------------2-2-2----------------------------|

  (C)                             (Em)
E|------------------------------------------------------------------|
B|-------5-5-5-5-5-5-5-5-5-5-5-5-5----------------------------------|
G|-5-5-5---------------------------------11-11-11-12-12--7-7-7-9-9--|
d|-5-5-5---------------------------2-2-2-x--x--x--x--x---x-x-x-x-x--|
A|-3-3-3---------------------------2-2-2-9--9--9--10-10--5-5-5-7-7--|
D|---------------------------------2-2-2----------------------------|


Guitar 2:
  (C)                             (Em)
E|------------------------------------------------------------------|
B|-------8-8-8-8-8-8-8-8-8-8-8-8-8----------------------------------|
G|-5-5-5---------------------------------4-4-4-4-4-4-4-4-4-4-4-4-4--|
d|-5-5-5---------------------------2-2-2----------------------------|
A|-3-3-3---------------------------2-2-2----------------------------|
D|---------------------------------2-2-2----------------------------|

  (C)                             (Em)
E|------------------------------------------------------------------|
B|------------------------------------------------------------------|
G|-5-5-5-7-7-7-7-7-7-7-7-7-7-7-7-7-------11-11-11-12-12--7-7-7-9-9--|
d|-5-5-5---------------------------2-2-2-x--x--x--x--x---x-x-x-x-x--|
A|-3-3-3---------------------------2-2-2-9--9--9--10-10--5-5-5-7-7--|
D|---------------------------------2-2-2----------------------------|

Post-Chorus (not positive about this one)

  (Em)     (D)         (C)                    (C)
E|---------------------------------------------------------------------|
B|------------------------12^-12^-12^-12-12-12---12^-12^-12^-12-12-12--|
G|----------7-7--7-7-7-------------------------------------------------|
d|-2-2-2-2--4-4--4-4-4--10---------------------10----------------------|
A|-2-2-2-2--5-5--5-5-5--10---------------------10----------------------|
D|-2-2-2-2--0-0--0-0-0--10---------------------10----------------------|
pm****** .  .    .

Bridge thing:
One of those parts that has so much going on it's hard to pick out what's what.

Guitar 1:
  (Em)
E|------------------0-----|
B|-------3-------------3--|
G|----0--------0----------|
d|---4------4----4--------|
A|--2---------------------|
D|-2----------------------|

Guitar 2:
  (Em)
E|---7----7------|
B|-5----3-----3--|
G|---------------|
d|---------------|
A|---------------|
D|---------------|

Outro:

Guitar 1:
  (D)(Em)
E|-----------------------------------|
B|-----------------------------------|
G|--------11-11-11-12-12--7-7-7-9-9--| x4
d|-0-2-2--x--x--x--x--x---x-x-x-x-x--|
A|-0-2-2--9--9--9--10-10--5-5-5-7-7--|
D|-0-2-2-----------------------------|

Guitar 2:
  (D)(Em)
E|-------------------------------------|
B|-------------------------------------|
G|--------14-14-14-16-16--7-7-7-12-12--| x4
d|-0-2-2--x--x--x--x--x---x-x-x-x--x---|
A|-0-2-2--12-12-12-14-14--9-9-9-10-10--|
D|-0-2-2-------------------------------|

End on:
  (D)(Em)
E|--------|
B|--------|
G|--------|
d|-0-2-2\-|
A|-0-2-2\-|
D|-0-2-2\-|
************************************

| /   slide up
| \   slide down
| h   hammer-on
| p   pull-off
| ~   vibrato
| +   harmonic
| x   Mute note
| b   Bend
| pb  Pre-bend
| br  Bend release
| pbr Pre-bend release
| brb Bend release bend
| *   Palm Mute
| .   Staccato

************************************
Suggest correction
Give kudos to tab author, rate the tab!
1 2 3 4 5
comments
print report bad tab
1 comment total.
0 reply
BigTim72 110 Dec 06, 2011 01:31 AM

pretty good dude. i love this band but there are some errors here that i wouldnt mind helping with!

well for starters in the intro the 5 5p0 should be one string up, so on the 4th string (D). and i also think that right after that little 7,4,5,0 part you should put a 5 power chord that slides up to 10 power chord; cuz it sounds better like that than without it. Plus after the 12b to 12, you should put a 10 power chord slide down.

On the verse the 2nd guitar should be:
e|------------------------------------
B|-12br-------------15-15-------------
G|------14-12-14-12----------12-14-12- x4
D|------------------------12----------
A|------------------------------------
D|------------------------------------

then on the pre chorus part after the 2 power chord make it a slide to the 10 power chord then it's not 3 power chord, it's a 5 power chord then a 4 power chord. and i think the second guitar part is something like this
e|------------------(0 [all the way across the 10's])-
B|-5/7--7h8-7-8/-12-10-10-10-10-10-10-10--------------
G|----------------------------------------------------
D|----------------------------------------------------
A|----------------------------------------------------
D|----------------------------------------------------

that (0) means you can play it along with the 10's if you think it sounds right, it kind of goes with it but not 100% sure.

and im not sure on the bridge yet, but i'll get back to you. other wise good job on the rest!

guest
You may want to rate the tab now too:
select rating
Wanna post a correction for this tab? Suggest correction