Oops, an error
Loading. Please wait.

Smile For The Camera Tab

version 2
version 2

Whole song

Interactive

2,113 views 3 this week
no commentswrite comment
1 2 3 4 5
excellent!
x 1
add to favorites
launch autoscroll
font size
0
reset
how to read this tab
guitar tuner
Tab Pro tools
  • play this tab
  • loop segment
  • change instrument
  • show fretboard
  • metronome
Autoscroll
slow
fast
+/-
esc
set tempo
stop
Contributor
Difficulty
intermediate
Band: Armor For Sleep
Song: Smile For The Camera
Album: Smile For Them

please comment and rate it

;D


Intro:

Guitar 2:
(Main Riff)
e|-7/9----------------9----9----12----7-------|
B|-----10-9-7-10-7-10---10---10----10---10----|
G|--------------------------------------------|
D|--------------------------------------------| 6x
A|--------------------------------------------|
D|--------------------------------------------|
You can tap these notes if you want
goes like this:
e|---------------------------------------------------|
B|-12--14t-10p9--7-10t-7-10t-14t-10-14t--17t-10--12t-|
G|---------------------------------------------------|
D|---------------------------------------------------|
A|---------------------------------------------------|
E|---------------------------------------------------|

Guitar 1:
comes after guitar 2 play the main riff twice
e|----------------------------------------------------------------------|
B|----------------------------------------------------------------------|
G|------------------------------------44444444444444442222222222222222--|
D|44444444444444440000000000000000000044444444444444442222222222222222--|
A|44444444444444440000000000000000000022222222222222220000000000000000--|
D|444444444444444400000000000000000000----------------------------------|




Verse:

Guitar 2:

e|-7/9-----7------5-----------7~~---|
B|-----5~----5~~----2~~--2/5--------|
G|----------------------------------|
D|----------------------------------|
A|----------------------------------|
D|----------------------------------|




Pre-Chorus:

Both Guitars:

"Smile for the camera..."
e|---------------------|
B|---------------------|
G|-------6~~-----------|
D|--xx---6~~-----------|
A|--xx---4~~-----------|
D|--xx-----------------|
just let it ring




Chorus:

Guitar 1:

e|----------------------------------------------------------------------|
B|----------------------------------------------------------------------|
G|------------------------------------44444444444444442222222222222222--|
D|44444444444444440000000000000000000044444444444444442222222222222222--| 2x
A|44444444444444440000000000000000000022222222222222220000000000000000--|
D|444444444444444400000000000000000000----------------------------------|

Guitar 2:

e|-------------------------------------------------------------------------------|
B|-------------------------------------------------------------------------------|
G|------------------------------------4444444444444444-66666666-1313131313131313-|
D|4444444444444444000000000000000000004444444444444444-xxxxxxxx--x-x-x-x-x-x-x-x-|
A|4444444444444444000000000000000000002222222222222222-44444444-1111111111111111-|
D|444444444444444400000000000000000000-------------------------------------------|

e|----------------------------------------------------------------------|
B|----------------------------------------------------------------------|
G|------------------------------------44444444444444442222222222222222--|
D|44444444444444440000000000000000000044444444444444442222222222222222--|
A|44444444444444440000000000000000000022222222222222220000000000000000--|
D|444444444444444400000000000000000000----------------------------------|




Verse


Pre-Chorus


Chorus




Bridge Part 1:

Guitar 1:

e|-------------------------------------|
B|-------------------------------------|
G|-------------------------------------|
D|00000000222222224444444444444444-----| 2x
A|00000000222222224444444444444444-----|
D|00000000222222224444444444444444-----|


Guitar 2:

e|------------------------|
B|-2/5--3-2~------2/10~~--|
G|------------------------|
D|------------------------|
A|------------------------|
D|------------------------|

e|------------------------|
B|-2/5--3-2~------2/5~~---|
G|------------------------|
D|------------------------|
A|------------------------|
D|------------------------|

then

Both Guitars:

e|---------------|
B|--9999999999---|
G|--xxxxxxxxxx---|
D|--6666666666---|
A|---------------|
D|---------------|




Bridge Part 2:

Both Guitars:

e|------------------------------------------------------|
B|-------------101010101010---------------999999--------|
G|--------------x-x-x-x-x-x---------------xxxxxx--------|
D|000022224444--7-7-7-7-7-7-000022224444--666666--------|
A|000022224444--------------000022224444----------------|
D|000022224444--------------000022224444----------------|

e|-------------------------------------|
B|-------------101010101010------------|
G|--------------x-x-x-x-x-x-4444-------|
D|000022224444--7-7-7-7-7-7-4444-0~~---|
A|000022224444--------------2222-0~~---|
D|000022224444-------------------0~~---|
do a little bend and realease in the octaves





Bridge Part 3:

Guitar 2:
Main Riff(6x)


Guitar 1:

comes after guitar 2 play the main riff twice
e|-----------|
B|-----------|
G|-----------|
D|--xx-0~~---|
A|--xx-0~~---|
D|--xx-0~~---|




Last Chorus part 1:


Guitar 1:

e|----------------------------------------------------------------------|
B|----------------------------------------------------------------------|
G|------------------------------------44444444444444442222222222222222--|
D|44444444444444440000000000000000000044444444444444442222222222222222--| 3x
A|44444444444444440000000000000000000022222222222222220000000000000000--|
D|444444444444444400000000000000000000----------------------------------|

Guitar 2:

e|-------------------------------------------------------------------------------|
B|-------------------------------------------------------------------------------|
G|------------------------------------4444444444444444-66666666-1313131313131313-|
D|4444444444444444000000000000000000004444444444444444-xxxxxxxx--x-x-x-x-x-x-x-x-|
A|4444444444444444000000000000000000002222222222222222-44444444-1111111111111111-|
D|444444444444444400000000000000000000-------------------------------------------|

e|----------------------------------------------------------------------|
B|----------------------------------------------------------------------|
G|------------------------------------44444444444444442222222222222222--|
D|44444444444444440000000000000000000044444444444444442222222222222222--|
A|44444444444444440000000000000000000022222222222222220000000000000000--|
D|444444444444444400000000000000000000----------------------------------|

then

Main Riff(6x)



Last Chorus part 2:

Guitar 1:

e|------------------------------------------------------|
B|-------------101010101010---------------999999--------|
G|--------------x-x-x-x-x-x---------------xxxxxx--------|
D|000022224444--7-7-7-7-7-7-000022224444--666666--------|
A|000022224444--------------000022224444----------------|
D|000022224444--------------000022224444----------------|

e|-------------------------------------|
B|-------------101010101010------------|
G|--------------x-x-x-x-x-x-4444-------|
D|000022224444--7-7-7-7-7-7-4444-2~~---|
A|000022224444--------------2222-2~~---|
D|000022224444-------------------2~~---|
do a little bend and realease in the octaves

Guitar 2:

e|--------------------------------|
B|101010-999-101010--101010101010-|
G|-x-x-x-xxx--x-x-x---x-x-x-x-x-x-|
D|-7-7-7-666--7-7-7---7-7-7-7-7-7-|
A|--------------------------------|
D|--------------------------------|

e|--------------------------------|
B|101010-999-101010--999999-------|
G|-x-x-x-xxx--x-x-x--xxxxxx-------|
D|-7-7-7-666--7-7-7--666666-------|
A|--------------------------------|
D|--------------------------------|

e|--------------------------------|
B|101010-999-101010--101010101010-|
G|-x-x-x-xxx--x-x-x---x-x-x-x-x-x-|
D|-7-7-7-666--7-7-7---7-7-7-7-7-7-|
A|--------------------------------|
D|--------------------------------|

e|--------------------|
B|101010-999---5~~----|
G|-x-x-x-xxx---x~~----|
D|-7-7-7-666---2~~----|
A|--------------------|
D|--------------------|
comments
We did not receive enough feedback on this tab! Please rate:
print report bad tab
1 2 3 4 5
I want to post or [tab]
guest
You may want to rate the tab now too:
select rating
Please do not post tabs as comments. Select "correction" instead!