Oops, an error
Loading. Please wait.

Stay On The Ground Bass Tab

488 views 1 this week
no commentswrite comment
1 2 3 4 5
please rate
add to favorites
launch autoscroll
font size
0
reset
guitar tuner
Autoscroll
slow
fast
+/-
esc
set tempo
stop
Help us to improve Ultimate-Guitar.com Take our survey!
×
Tuning
D A D G B E
Intro (0:11):
G|------------------------|------------------------------------|
D|------------------------|------------------------------------|
A|------------------------|------------------------------------|
D|-0-3--5--7----7-0--3----|-0-3--5--7----7-0-0-0-0-0-3-3-3-3-3-|

G|----------------------------|
D|----------------------------|
A|----------------------------|
D|-3-3--5-5-7-7-7-7-7-7-7-7-7-|
[x2]

Verse (0:36):
G|------------------------|
D|------------------------|
A|------------------------|
D|-0-3--5--7----7-0--3----|
[x2]

G|-------------------------|-------------------------------|
D|-------------------------|-------------------------------|
A|-------------------------|-------------------------------|
D|-0-3-3-5-5-7-7-7-7-7-7-7-|-7-0-0-0-0-0-3-3-3-3-3-3-3-3-3-|
[x2]

G|------------------------------|
D|------------------------------|
A|------------------------------|
D|-3-3--5-5-7-7-7-7-7-7-7-7-7-7-|
[x2]

Chorus (1:12):
[x4]
G|----------------------------------|
D|----------------------------------|
A|--------------------------5-5-5-5-|
D|-3-3-3-3--3-3-3--3-3-3-3----------|

G|------------------------------------|
D|------------------------------------|
A|----------------------------7-7-7-7-|
D|-7-7-7-7--7-7-7--7-7--7-7-7---------|

Verse (1:36):
G|-------------------------|-------------------------------|
D|-------------------------|-------------------------------|
A|-------------------------|-------------------------------|
D|-0-3-3-5-5-7-7-7-7-7-7-7-|-7-0-0-0-0-0-3-3-3-3-3-3-3-3-3-|
[x2]

G|------------------------|
D|------------------------|
A|------------------------|
D|-0-3--5--7----7-0--3----|
[x2]

G|------------------------------|
D|------------------------------|
A|------------------------------|
D|-3-3--5-5-7-7-7-7-7-7-7-7-7-7-|
[x2]

Chorus (2:12)

Bridge (2:35):
G|----------------------------------------------------------|
D|----------------------------------------------------------|
A|----------------------------------------------------------|
D|-3-3-3-3--3-3-3--3-3-3-3-3-3-7-7-7-7--7-7-7--7-7--7-7-7-7-|

G|------------------------------------------------|
D|------------------------------------------------|
A|----------------------------------7--8--10--12^-|
D|-3-3-3-3--3-3-3--3-3-3-3-3-3-7-7----------------|

G|---------------------|-----------------|
D|---------------------|-----------------|
A|---------------------|-----------------|
D|-3-3----0-3-3--0-7-7-|----0-7-7--0-3-3-|
[x2]

Chorus [x2] (3:05)

End of Fourth total chorus (3:35):
G|----------|
D|----------|
A|----------|
D|-3--3--3~-|

Chorus [x2] (3:43)
Suggest correction
What's this?
You can suggest a correction to this tab. Community and Mods will review your correction and vote to approve or reject it.
comments
We did not receive enough feedback on this tab! Please rate:
print report bad tab
1 2 3 4 5
guest
You may want to rate the tab now too:
select rating
Please do not post tabs as comments. Select "correction" instead!